Oops, an error
Loading. Please wait.

Amores Lejanos tab

version 2
version 2

Whole song

Interactive

16,427 views 12 this week
3 commentsread comments
1 2 3 4 5
x 7
add to favorites
×
Save as Personal and add changes to this tab that will be seen only by you. Learn more ›
×
You can save this tab as Personal to edit and correct it or add notes. All changes will be seen only by you. Learn more »
launch autoscroll
font size
0
reset
how to read this tab
guitar tuner
edit
Autoscroll
slow
fast
+/-
esc
set tempo
stop
Author
amores lejanos en vivo

E|-------------------------------------------------------|
B|-----0-1-3-3/5~-3-1-3~-3/5~-1--------------------------|
G|---2--------------------------2-2~-0---0---------------|
D|-2-----------------------------------2---0-2---0-------|
A|---------------------------------------------3---0~~---|
E|-------------------------------------------------------|

E|------------------------------------------------------------------------|
B|-------5-6-8-4h5---------------------------5-6-5-----5------------------|
G|---5-7-----------5---5-7/9\7p5-7~----4-5-7-------7-5---7-5-7-5-4--------|
D|-7-----------------7---------------7-----------------------------7-5-7~-|
A|------------------------------------------------------------------------|
E|------------------------------------------------------------------------|

E|---------------5-7-8-7~-5---------------------------------------|
B|---------5-6-8------------8-6-5~-6-5-------5-6--8-6-5---5h6-5~--|
G|---4-5-7-----------------------------7-5-7------------7---------|
D|-7--------------------------------------------------------------|
A|----------------------------------------------------------------|
E|----------------------------------------------------------------|

e|------------------------12-13--15-13-12-13-12----13-12-------12-10-----------|
B|------------10-12-13-15-----------------------15-------15-13-------13-12-10--|
G|----9-10-12------------------------------------------------------------------|
D|-12--------------------------------------------------------------------------|
A|-----------------------------------------------------------------------------|
E|-----------------------------------------------------------------------------|

E|-------------------------------------------------------------|
B|-13-12-10---10-12----10--------------------------------------|
G|----------12------12----9-10--7-9--5-4--2-0-2-2-2-2-2-2-2~---|
D|-------------------------------------------------------------|
A|-------------------------------------------------------------|
E|-------------------------------------------------------------|

(Intro)
E|-------------------1--------------0----------0-----|
B|-----0-1-3-----------3--------1-3---3-1--------1---|
G|---2-------2-0---2-----2----2--------------2-----2-|
D|-2-------------0----------3--------------2---------|
A|---------------------------------------------------|
E|---------------------------------------------------|

E|-------------------1--------------0-----------0--------0---|
B|-----0-1-3-----------3--------1-3---3-1-----1---1----3---3-|
G|---2-------2-0---2-----2----2-------------2--------1-------|
D|-2-------------0----------3-------------2------------------|
A|-----------------------------------------------------------|
E|-----------------------------------------------------------|

  Dm                         Am
Esta tarde no pasa nada, las calles parecen desiertas,
     Dm                          Am                G
Carmencita se fue de viaje, y quiza nunca mas la vea.
      Dm                         Am
yo mirando por la ventana, el asfalto brillando perlas,
     Dm                F             C                E7
los lugares que frecuentaba, no me atraen ni me interesan.


   E|----5----7----8-----10----12--|
   B|------------------------------|
   G|-/5---/7---/9---/10----12-----|
   D|------------------------------|    Riff 1
   A|------------------------------|
   E|------------------------------|





                  C   G                 Am
y aunque hoy no estas,     voy planificando


E|-------------0--------------------|
B|---1---0-1-----1------0h1-0-------|
G|-----------------2----------2-0---|      Riff 2
D|-----2-----2--------2-----------3-|
A|----------------------------------|
E|----------------------------------|

            F7  G              Am
una y otra vez        amores lejanos.

Riff 2
                  C    G                     Am
y aunque hoy no estas,       te habro mis brazos

Riff 2
           F7   G             Am
yo me quedare,       aqui esperando

         E|------------0---|
         B|--1---0-1-------|
         G|----------------|
         D|----2-----2-----|
         A|----------------|
         E|----------------|

(INTRO)

Esta tarde no pasa nada, no me puedo olvidar de ella,

E|-------8---------7--------5------5-|
B|-----6---------6--------5------5---|
G|---7---------7--------5------5-----|
D|-7---------7--------7------7-------|
A|-----------------------------------|
E|-----------------------------------|

hace un mes que la estoy pensando, y no se si de mi se acuerda.

E|-------8---------7--------5--3--3-3-3-|
B|-----6---------6--------5----3--3-3-3-|
G|---7---------7--------5------4--4-4-4-|
D|-7--------7---------7--------5--5-5-5-|
A|-----------------------------5--5-5-5-|
E|-----------------------------3--3-3-3-|

el futuro es algo incierto, pero ese no es el problema,

E|-------8---------7--------5------5-|
B|-----6---------6--------5------5---|
G|---7---------7--------5------5-----|
D|-7---------7--------7------7-------|
A|-----------------------------------|
E|-----------------------------------|

donde pongo mi sentimiento, si esta noche hay luna llena.

E|-------8-------1--0-|
B|-----6-------1----1-|
G|---7-------2------0-|
D|-7-------3--------2-|
A|------------------3-|
E|--------------------|

Riff 1
         
         C   G                 Am
y aunque hoy no estas,     voy planificando

Riff 2
            F7  G              Am
una y otra vez        amores lejanos.

Riff 2
                  C    G                     Am
y aunque hoy no estas,       te habro mis brazos

Riff 2
           F7   G             Am
yo me quedare,       aqui esperando

         EI------------0---|
         BI---1---0-1------|
         GI----------------|
         DI-----2-----2----|
         AI----------------|
         EI----------------|

SOLO:

E|----------------------------------------------------------|
B|-----0-1-3--------3/5-3~--8p5-----------------------------|
G|---2-------2-0----------------7p5-7~-5-7~-5---------------|
D|-2-------------0----------------------------7p5-----------|
A|------------------------------------------------7\5p3-5~--|
E|----------------------------------------------------------|

E|----------------------------------|
B|-------5-6-8-4h5------------------|
G|---5-7-----------5---5-7/9\7p5-7~-|
D|-7-----------------7--------------|
A|----------------------------------|
E|----------------------------------|

E|----------7-10-8-7----8-7------7--------------------------------------|
B|--------8----------10-----10-8---10/12-10-12-13-15-13-12-13-/17-17~\--|
G|------9---------------------------------------------------------------|
D|-7h10-----------------------------------------------------------------|
A|----------------------------------------------------------------------|
E|----------------------------------------------------------------------|

E|-8-7---------------------------8-7------------------|
B|-----10-8-8/10-10-8-10-10~--------10-8--------------|
G|---------------------------7/9---------7/9-9-7-9-9~-|
D|----------------------------------------------------|
A|----------------------------------------------------|
E|----------------------------------------------------|

E|-----8-7------8-8-7---7-/10-10~-8/12-8----8h10p8-|
B|---------10-8-------8------------------10--------|
G|-7/9---------------------------------------------|
D|-------------------------------------------------|
A|-------------------------------------------------|
E|-------------------------------------------------|

E|-----12----10----8----7--7~-|
B|----------------------------|
G|-/12----10----9----/7-------|
D|----------------------------|
A|----------------------------|
E|----------------------------|






oh oh oh oh   oh oh oh oh   oh oh oh oh
E|------------|------------|--------------------------------|
B|------------|------------|-8h10-10-10-8-10-10-10-8-10-10--|
G|-7h9—7------|-7h9—7------|--------------------------------|
D|--------7-7-|--------7-7-|--------------------------------|
A|------------|------------|--------------------------------|
E|------------|------------|--------------------------------|

   oh oh oh oh      oh oh oh oh       oh oh oh oh
E|-----------------|---------------|------------------|
B|-10-8-10--10-----|-10-10--8-8-8--|------------------|
G|-----------------|---------------|-7p5-7-5--7s9-9---|
D|-----------------|---------------|------------------|
A|-----------------|---------------|------------------|
E|-----------------|---------------|------------------|

E|-10/12-10--------|---------------|
B|----------10-10--|-----8-8---8---|
G|-----------------|-7/9-----9-----|
D|-----------------|---------------|
A|-----------------|---------------|
E|-----------------|---------------|

                 C  G               Am
   y aunque hoy no estas,     voy planificando
                 F7  G              Am
   una y otra vez        amores lejanos.

                     C   G                    Am
   y aunque hoy no estas,       te habro mis brazos

Riff 2
                F7    G             Am
   yo me quedare,       aqui merito esperando.







Suggest correction
Creating personal tab
Creating personal tab
You can edit any tab online and save it as your Personal.

You can edit, replace or remove any tab part or add personal notes – all changes will be seen only by you.

Personal tabs can be accessed anytime from any device, even offline.
Learn more »
comments
print report bad tab
3 comments total.
0 reply
jose763 631 Aug 09, 2006 08:33 AM

E--------------0--------------------|
B|------0h1-------1------0h1--------|
G|---2--------------2---------2-0---| Riff 2
D|-2---2-----2---------2----------3-|
A|----------------------------------|
E|----------------------------------|
Riff 2 should've ben like this, sorrry about that

0 reply
jose763 631 Aug 09, 2006 08:39 AM

Also there should be a slide on the 12
E|-------------5-7-8-7-5-5/7-5--5-7-8-8/10-8-7-8-10/12-(12\)-|
B|-------5-6-8-----------------------------------------------|
G|---5-7-----------------------------------------------------|
D|-7---------------------------------------------------------|
A|-----------------------------------------------------------|
E|-----------------------------------------------------------|
and a pull off on the 7 and the 5
E|-----12----10----8----7--7p5~-|
B|------------------------------|
G|-/11----10----9----/7---------|
D|------------------------------|
A|------------------------------|
E|------------------------------|
im not sure why it was taken off the tab

0 reply
jjuanml22 41 Oct 27, 2009 04:39 PM

where the hell does this go?? confused here

guest
You may want to rate the tab now too:
select rating
Wanna post a correction for this tab? Suggest correction