Oops, an error
Loading. Please wait.

Del Cairo A Paris Vivo tab

2,076 views 1 this week
no commentswrite comment
1 2 3 4 5
2 more votes to show rating
add to favorites
×
Save as Personal and add changes to this tab that will be seen only by you. Learn more ›
×
You can save this tab as Personal to edit and correct it or add notes. All changes will be seen only by you. Learn more »
launch autoscroll
font size
0
reset
how to read this tab
guitar tuner
edit
Autoscroll
slow
fast
+/-
esc
set tempo
stop
Author
Intro:

|------3\1/3\1--1h3-1----------3\1/3--3--3h5-3---------|
|o-/6--5\3/5\3--------3----/6--5\3/5--5--------5-------|
|--/7-------------------2--/7---------5----------5-----|
|-------------------------------------5----------------|
|o-----------------------------------------------------|
|------------------------------------------------------|

                                                 1st           2nd
-----3\1/3--5--5------------------5--|------------|-8/10-8--------------|
-/6--5\3/5--6----6---------5------6--|-------6---o|-8/10-8--10-8\6~-----|
-/7---------7------------5---5----7--|-----5---7~-|----------9-7\5~-----|
------------8----------5----------7--|-5h7--------|---------------------|
------------5---------------------5--|-----------o|---------------------|
---------------------5---------------|------------|---------------------|


   Verso:                dm                CM
          Del Cairo a Paris, cruze por el mar
                      BbMM7       amm7          dm
          Mientras que la luna, se asomaba fugaz.

                     dm              CM
          Un siglo paso, testigo fue el sol
                      BbMM7          amm7          dm
          Amor a la egipcia, Sacrifica el corazon.

    Coro:
                 CM         dm
          Busco mas, un instante maass
                   BbMM7   amm7       dm
          Como un rey,     insaciable.

                      CM          dm
          Frente al Dios, que vigila el viento
                 BbMM7      amm7          dm
          Nos Juramos,      eterno amor.

|------3\1/3\1--1h3-1----------3\1/3--3--3h5-3---------|
|--/6--5\3/5\3--------3----/6--5\3/5--5--------5-------|
|--/7-------------------2--/7---------5----------5-----|
|-------------------------------------5----------------|
|------------------------------------------------------|
|------------------------------------------------------|


-----3\1/3--5--5------------------5--|------------|
-/6--5\3/5--6----6---------5------6--|-------6----|
-/7---------7------------5---5----7--|-----5---7~-|
------------8----------5----------7--|-5h7--------|
------------5---------------------5--|------------|
---------------------5---------------|------------|

   Verso:

          (dm_CM_BbMM7_amm7_dm)
          Del cairo a paris, Cruze sin pensar
          Que amor a la egipcia, es dificil olvidar.
          (dm_CM_BbMM7_amm7_dm)
          Un siglo paso, testigo fue el sol
          Amor a la egipcia, sacrifica el corazon.

   Coro:
          (CM_dm_BbMM7_amm7_dm)
          El desierto, nos trajo la sed
          Y el oasis,      fue nuestra piel.
          (CM_dm_BbMM7_amm7_dm)
          Por las noches, Abrigandonos
          Esta llama,      es mi verso de estrellas.


   Verso:
          ((dm_CM_BbMM7_amm7_dm)

          Del cairo a paris, cruze sin pensar
          Que Amor a la egipcia, es dificil encontrar.


|--------------------------------------------|-------------17~-17-18-18/20~--17h18-18~--|
|-o------8/10~-10~--10-11-11/13~--10h11-10~-o|o-/15~-15-15-----------------------------o|
|--/7--7-------------------------------------|------------------------------------------|
|--------------------------------------------|------------------------------------------|
|-o-----------------------------------------o|o----------------------------------------o|
|--------------------------------------------|------------------------------------------|

Interludio:

(BbMM7_FM_BbMM7_amm7)

Outro:

|------3\1/3\1--1h3-1----------3\1/3--3--3h5-3---------|
|--/6--5\3/5\3--------3----/6--5\3/5--5--------5-------|
|--/7-------------------2--/7---------5----------5-----|
|-------------------------------------5----------------|
|------------------------------------------------------|
|------------------------------------------------------|


-----3\1/3--5--5------------------5--|------------|-----3\1/3\1---|
-/6--5\3/5--6----6---------5------6--|-------6----|-/6--5\3/5\3---|
-/7---------7------------5---5----7--|-----5---7~-|-/7------------|
------------7----------5----------7--|-5h7--------|---------------|
------------5---------------------5--|------------|---------------|
---------------------5---------------|------------|---------------|

---------------------------------------------------------------|
--------6---8-6-8b10-8-6----------------------------6----------|
-5-7-7~---7--------------7~----5----------------5-7---7-7~-----|
-----------------------------7---7\5~-3---3-5/7----------------|
----------------------------------------5----------------------|
---------------------------------------------------------------|

--------------------------------------|
-----------------------------6-6------|
---5---------7/9-5-7-5h7~--7-----7~---|
-7---7\5=p3---------------------------|
--------------------------------------|
--------------------------------------|

----------10-------10----13-10~------------------------------13-15-17-13h15~----|
-------10----10-13----10--------13b15-13-10------------13-15--------------------|
-12b14--------------------------------------12-10~--14--------------------------|
--------------------------------------------------------------------------------|
--------------------------------------------------------------------------------|
--------------------------------------------------------------------------------|

-10--------------------------------10-12----10-10-13-12-10----10-------------|
----13-10--------------------13b15-------13----------------13----10-13-------|
----------13\12p10-12----10~--------------------------------------------12~--|
----------------------12-----------------------------------------------------|
-----------------------------------------------------------------------------|
-----------------------------------------------------------------------------|

------------------------------------------3\1/3---1~------|
----6-8-8b10r8p6---8---6--------------/6--5\3/5---3~------|
-/7--------------7---7---7-5----------/7----------2~------|
-----------------------------7\5-3----------------0~------|
-----------------------------------5~---------------------|
----------------------------------------------------------|

            
            
Suggest correction
Creating personal tab
Creating personal tab
You can edit any tab online and save it as your Personal.

You can edit, replace or remove any tab part or add personal notes – all changes will be seen only by you.

Personal tabs can be accessed anytime from any device, even offline.
Learn more »
Give kudos to tab author, rate the tab!
1 2 3 4 5
comments
print report bad tab
guest
You may want to rate the tab now too:
select rating
Wanna post a correction for this tab? Suggest correction