Oops, an error
Loading. Please wait.

En Vivo album tab

1,834 views 1 this week
1 commentread comment
1 2 3 4 5
2 more votes to show rating
add to favorites
×
Save as Personal and add changes to this tab that will be seen only by you. Learn more ›
×
You can save this tab as Personal to edit and correct it or add notes. All changes will be seen only by you. Learn more »
launch autoscroll
font size
0
reset
how to read this tab
guitar tuner
edit
Autoscroll
slow
fast
+/-
esc
set tempo
stop
Author
1.      Amores Lejanos

E|-----------------------------------------------------|
B|-----0-1-3-3/5~-3-1-3~-3/5~-1------------------------|
G|---2--------------------------2-2~-0---0-------------|
D|-2-----------------------------------2---0-2---0-----|
A|---------------------------------------------3---0---|
E|-----------------------------------------------------|

E|------------------------------------------------------------------------|
B|-------5-6-8-4/5---------------------------5-6-5-----5------------------|
G|---5-7-----------5---5-7/9\7p5-7~----4-5-7-------7-5---7-5-7-5-4--------|
D|-7-----------------7---------------7-----------------------------7-5-7~-|
A|------------------------------------------------------------------------|
E|------------------------------------------------------------------------|

E|---------------5-7-8-7~-5---------------------------------------|
B|---------5-6-8------------8-6-5~-6-5-------5-6--8-6-5---5h6-5~--|
G|---4-5-7-----------------------------7-5-7------------7---------|
D|-7--------------------------------------------------------------|
A|----------------------------------------------------------------|
E|----------------------------------------------------------------|

e|------------------------12-13--15-13-12-13-12----13-12-------12-10-----------|
B|------------10-12-13-15-----------------------15-------15-13-------13-12-10--|
G|----9-10-12------------------------------------------------------------------|
D|-12--------------------------------------------------------------------------|
A|-----------------------------------------------------------------------------|
E|-----------------------------------------------------------------------------|

E|-------------------------------------------------------------|
B|-13-12-10---10-12----10--------------------------------------|
G|----------12------12----9-10--7-9--5-4--2-0-2-2-2-2-2-2-2~---|
D|-------------------------------------------------------------|
A|-------------------------------------------------------------|
E|-------------------------------------------------------------|

(Intro)

E|-------------------1--------------0----------0-----|
B|-----0-1-3-----------3--------1-3---3-1--------1---|
G|---2-------2-0---2-----2----2--------------2-----2-|
D|-2-------------0----------3--------------2---------|
A|---------------------------------------------------|
E|---------------------------------------------------|

E|-------------------1--------------0-----------0--------0---|
B|-----0-1-3-----------3--------1-3---3-1-----1---1----3---3-|
G|---2-------2-0---2-----2----2-------------2--------1-------|
D|-2-------------0----------3-------------2------------------|
A|-----------------------------------------------------------|
E|-----------------------------------------------------------|

  Dm                         Am
Esta tarde no pasa nada, las calles parecen desiertas,
     Dm                          Am                G
Carmencita se fue de viaje, y quiza nunca mas la vea.
      Dm                         Am
yo mirando por la ventana, el asfalto brillando perlas,
     Dm                F             C                E7
los lugares que frecuentaba, no me atraen ni me interesan.


   E|----5----7----8-----10----12--|
   B|------------------------------|
   G|-/5---/7---/9---/10----12-----|
   D|------------------------------|    Riff 1
   A|------------------------------|
   E|------------------------------|

                  C   G                 Am
y aunque hoy no estas,     voy planificando


E|-------------0--------------------|
B|---1---0-1-----1------0h1-0-------|
G|-----------------2----------2-0---|      Riff 2
D|-----2-----2--------2-----------3-|
A|----------------------------------|
E|----------------------------------|

            F7  G              Am
una y otra vez        amores lejanos.

Riff 2
                  C    G                     Am
y aunque hoy no estas,       te habro mis brazos

Riff 2
           F7   G             Am
yo me quedare,       aqui esperando

         E|------------0---|
         B|--1---0-1-------|
         G|----------------|
         D|----2-----2-----|
         A|----------------|
         E|----------------|

(INTRO)

Esta tarde no pasa nada, no me puedo olvidar de ella,

E|-------8---------7--------5------5-|
B|-----6---------6--------5------5---|
G|---7---------7--------5------5-----|
D|-7---------7--------7------7-------|
A|-----------------------------------|
E|-----------------------------------|

hace un mes que la estoy pensando, y no se si de mi se acuerda.

E|-------8---------7--------5--3--3-3-3-|
B|-----6---------6--------5----3--3-3-3-|
G|---7---------7--------5------4--4-4-4-|
D|-7--------7---------7--------5--5-5-5-|
A|-----------------------------5--5-5-5-|
E|-----------------------------3--3-3-3-|

el futuro es algo incierto, pero ese no es el problema,

E|-------8---------7--------5------5-|
B|-----6---------6--------5------5---|
G|---7---------7--------5------5-----|
D|-7---------7--------7------7-------|
A|-----------------------------------|
E|-----------------------------------|

donde pongo mi sentimiento, si esta noche hay luna llena.

E|-------8-------1--0-|
B|-----6-------1----1-|
G|---7-------2------0-|
D|-7-------3--------2-|
A|------------------3-|
E|--------------------|

Riff 1

         C   G                 Am
y aunque hoy no estas,     voy planificando

Riff 2
            F7  G              Am
una y otra vez        amores lejanos.

Riff 2
                  C    G                     Am
y aunque hoy no estas,       te habro mis brazos

Riff 2
           F7   G             Am
yo me quedare,       aqui esperando

         EI------------0---|
         BI---1---0-1------|
         GI----------------|
         DI-----2-----2----|
         AI----------------|
         EI----------------|

SOLO:

E|----------------------------------------------------------|
B|-----0-1-3--------3/5-3~--8p5-----------------------------|
G|---2-------2-0----------------7p5-7~-5-7~-5---------------|
D|-2-------------0----------------------------7-5-----------|
A|------------------------------------------------7\5p3-5~--|
E|----------------------------------------------------------|

E|----------------------------------|
B|-------5-6-8-4/5------------------|
G|---5-7-----------5---5-7/9\7p5-7~-|
D|-7-----------------7--------------|
A|----------------------------------|
E|----------------------------------|

E|----------7-10-8-7----8-7------7-----------------------------------------|
B|--------8----------10-----10-8---10/12-10-12-13-13/15-13-12-13-15/17-17--|
G|------9------------------------------------------------------------------|
D|-7h10--------------------------------------------------------------------|
A|-------------------------------------------------------------------------|
E|-------------------------------------------------------------------------|

E|-8-7----------------------------8-7--------------------|
B|-----10-8-8/10-10~-8-10-10~---------10-8---------------|
G|----------------------------7/9----------7/9-9~-7-9-9~-|
D|-------------------------------------------------------|
A|-------------------------------------------------------|
E|-------------------------------------------------------|

E|-----8-7------8-8~-7---7-8/10-10~-8/12-8----8h10-8-|
B|---------10-8--------8-------------------10--------|
G|-7/9-----------------------------------------------|
D|---------------------------------------------------|
A|---------------------------------------------------|
E|---------------------------------------------------|

E|-------12----10----8----7--7~-|
B|------------------------------|
G|-10/12---10----9----9/7-------|
D|------------------------------|
A|------------------------------|
E|------------------------------|

oh oh oh oh   oh oh oh oh   oh oh oh oh
E|------------|------------|--------------------------------|
B|------------|------------|-8h10-10-10-8-10-10-10-8-10-10--|
G|-7h9—7------|-7h9—7------|--------------------------------|
D|--------7-7-|--------7-7-|--------------------------------|
A|------------|------------|--------------------------------|
E|------------|------------|--------------------------------|

   oh oh oh oh      oh oh oh oh       oh oh oh oh
E|-----------------|---------------|------------------|
B|-10-8-10--10-----|-10-10--8-8-8--|------------------|
G|-----------------|---------------|-7p5-7-5--7s9-9---|
D|-----------------|---------------|------------------|
A|-----------------|---------------|------------------|
E|-----------------|---------------|------------------|

E|-10/12-10--------|---------------|
B|----------10-10--|-----8-8---8---|
G|-----------------|-7/9-----9-----|
D|-----------------|---------------|
A|-----------------|---------------|
E|-----------------|---------------|

                 C  G               Am
   y aunque hoy no estas,     voy planificando
                 F7  G              Am
   una y otra vez        amores lejanos.

                     C   G                    Am
   y aunque hoy no estas,       te habro mis brazos

Riff 2
                F7    G             Am
   yo me quedare,       aqui merito esperando.


2.      Tequila

(Intro)
E---------------------------------|
B-----1-----1------3---3---1------|
G---2-----0------0------------0---|
D-2------------------0---0--------|
A-------3-------------------------|
E-------------3-------------------|


Solo 1 (1:29):

-------------8-10-12\10b12--r10br=p8----8-----------8--------------------|
-8b10~~-8/10-------------------------10---10b12~-10---8------------------|
--------------------------------------------------------9-8-7-5-7b9-7~~--|
-------------------------------------------------------------------------|
-------------------------------------------------------------------------|
-------------------------------------------------------------------------|

Outro (3:27): wah-wah

E-|------------------------|------------------------------|
B-|o----------------------o|--8b10~--b10r8p5--------------|
G-|-----5---5~--------7-5~-|-----------------7-5-7/\/\/---|
D-|--7~---7----7-5~-7------|------------------------------|
A-|o----------------------o|------------------------------|
E-|------------------------|------------------------------|

E--------------------------------------|
B--------------------------------------|
G-14b16-14b16-14b16--14b16r14-12-14~---|
D--------------------------------------|
A--------------------------------------|
E--------------------------------------|

E-----------------------------------------------------------------------|
B-----------------------------------------------------------17-20b22~---|
G-------------------------------------17~---------17-19~----------------|
D-17h19-19-19-17h19-19-19-17h19-19-19----17h19-19--------19-------------|
A-----------------------------------------------------------------------|
E-----------------------------------------------------------------------|


E--------------------------------------------------------------------|
B-b22r20p17----17-------------------------------------------17-17----|
G-----------19----19b21r19-17----19----17-------------17-------------|
D-----------------------------19----19------19p17-19-----19----------|
A--------------------------------------------------------------------|
E--------------------------------------------------------------------|

E-------17-19-20b22~-20p19p17----19~-17----17--------------------------------------|
B-20b22-----------------------20--------20----20/22-17~----17----------------------|
G-------------------------------------------------------19----21\19-17-19-21-17~---|
D----------------------------------------------------------------------------------|
A----------------------------------------------------------------------------------|
E----------------------------------------------------------------------------------|

E------------------------------------------------------------------------|
B------------------------------------------------------[5]-[7]-----------|
G-17--16-17--14h16--12-14/\/\/\12\11\9\7\6\4\2p0---[5]-------------[5]---|
D--------------------------------------------------------------[5]-------|
A------------------------------------------------------------------------|
E------------------------------------------------------------------------|


--------------------|
--------------------|
-[14]--dive bomb----|
--------------------|
--------------------|
--------------------|


{Am, C, G, D, C) toda la cancion hasta

solo 1

f#m         G
Donde estas
      AM         DM  (FILL)
te llamo y no me respondes,
f#m         G
oh! mi amor

Dsus2          C
donde estas
Dsus2          C    D X??
donde estas

Am    C      G     D,C
Nací para sufrir………………..


Solo 2

Fill

|------------------|
|-3/5-3-2----------|
|---------4-2------|
|-------------4-2--|
|------------------|
|------------------|


3.      Por El Resto

Intro:

---------------------------------------------------------------------------------|
---------------------------------------------------------------8-10~~-10\--------|
----5-7-7/9~--5-7-7/9-------------------------5-7-7/9~-5-7-7/9------------7-9~---|
----------------------5-7~--5-7/9\7--5-7/9\7-------------------------------------|
---------------------------------------------------------------------------------|
-17\-----------------------------------------------------------------------------|

-----------------------------------------------------------------------------------------|
-------------------------------------------------------------8-10~10~-/15-15-15/17-17~---|
-5-7-7/9~--5-7-7/9-------------------------5-7-7/9~--5-7-7/9-----------------------------|
-------------------5-7~-7p5-7/9\7--5-7/9\7-----------------------------------------------|
-----------------------------------------------------------------------------------------|
-----------------------------------------------------------------------------------------|

Verse:

                                    F
Nunca necesitaste a nadie para vivir
dm                                am7
Ni siquiera te fijaste que había a tu alrededor
                                 F
Desesperado mirabas las paredes de tu habitación
         dm                             E
Y gritaste fuerte pero nadie te conoció
          FMaj7#4
Y ahora tendrás que seguir
           Bb9#4
Cargando tu cruz

Chorus:

------------------------------------------------------------------|
------------------------------------------------------------------|
------------------------------------------------------------------|
------------------------------------------------------------------|
------------------------------------------------------------------|
-5-0-3-5~--0-3-0-5-0-3-5~--0-3-0-1-1-0-1~--0-1-0-3-0-1-3~--0-1-0--|

------------------------------------------------------------|
------------------------------------------------------------|
------------------------------------------------------------|
------------------------------------------------------------|
------------------------------------------------------------|
-5-0-3-5~--0-3-0-5-0-3-5~--0-3-0-1-1-0-1~--0-1-0-3-0-1-3~---|

Riff:

---------------------------------------------------------------------------------------------|
--------------------------------------------------------------8-10~~--/17--17-17--17-17-17~--|
--5-7-7/9~--5-7-7/9-------------------------5-7-7/9~-5-7-7/9---------------------------------|
--------------------5-7~--5-7/9\7--5-7/9\7---------------------------------------------------|
---------------------------------------------------------------------------------------------|
---------------------------------------------------------------------------------------------|

Verse 2 (Same Chords as verse 1):


Chorus:

------------------------|
------------------------|
------------------------|
------------------------|
------------------------|
-5-0-3-5~--0-3-0-5~~\---|

Solo 1 w/wah on some parts (2:21):

---------------------------------------------------------------13b15--15b17~--15--------|
-18b20-sostiene por 12 segundos--------------------------------------------------15-----|
--------------------------------5~-7-7/9~-5~-4-5------------------------------------12~-|
-------------------------------------------------7-5~/\/-w/bar--------------------------|
----------------------------------------------------------------------------------------|
----------------------------------------------------------------------------------------|

     despacio
-----------------/13-12---------------------------------------------------------|
-15h=18p15\13~----------15-13-15-15-12-13-------------------------wha-bar-------|
------------------------------------------12h14-14~/\/\/---14h16-17-16p14h16~---|
--------------------------------------------------------------------------------|
--------------------------------------------------------------------------------|
--------------------------------------------------------------------------------|

     T       T        T      T       T     T      T      T      T
-15-17p15---18p16----18p17--19p17--20p17--21p17--22p19--23p19--24p19-24~--10//--|
------\-----/---------\-------|------|------|------/----------------------------|
-------\---/-----------\------|------|------|-----/-----------------------------|
--------\-/-------------\-----|------|------|----/------------------------------|
-----TAP 10-veces------------TAP 3    veces-------------------------------------|
--------------------------------------------------------------------------------|

-24b26~--24b26~--24\\-----------12---------------------0----------0--|
----------------------------/15----13--------------0---------1-------|
--------------------------------------12~\/\---------2---------3-----|
---------------------------------------------------------------------|
-----------------------------------------------------------1---------|
-------------------------------------------------1-------------------|

Solo 2 wah-wah (3:19):
------|-----------------------------|-----|----------------------------------|
------|o---------------------------o|-----|o-/12-10-----12-10-/13-12-10-----o|
------|---/4--2------4-2-/5-4-2-----|-(5)-|---------9~~-----------------10~--|
------|---------2~~-------------3~~-|-----|----------------------------------|
------|o---------------------------o|-----|o--------------------------------o|
-/21\-|-----------------------------|-----|----------------------------------|
                                      A.H.

 1.    2.
|-----|-----------|
|-----|---20b22~~-|
|-(5)-|-----------|
|-----|-----------|
|-----|-----------|
|-----|-----------|

Outro:
                          x7                             x3
-----------|------------------|--------|--------------------|--------------1~--3~---|
-----------|o----------------o|--------|o------------------o|--------------1~--3~---|
-----------|------------------|--------|--9~-5-7-9~--5-7-5--|--9~-5-7-9~~--2~--4~---|
-----------|------------------|--------|--------------------|--------------3~--5~---|
-----------|o----------------o|--------|o------------------o|--------------3---5----|
-5-0-3-5~--|--0-3-0-5-0-3-5~--|-0-3-0--|--------------------|--------------1---3----|


-17-------------------------------------------------------------------------------------|
----20b22-20b22~--20b22r20p17----20b22~-20b22r20p17----17h20p17----17h19p17----17h19p17-|
------------------------------19--------------------20----------20----------20----------|
----------------------------------------------------------------------------------------|
----------------------------------------------------------------------------------------|
----------------------------------------------------------------------------------------|

------------------------------------------/\-------------------|
----17-----------------------------------/--\------------------|
-20----20p19p17----19----17-19~~/\------/----\----/------------|
----------------19----19----------\----/------\--/------7\-----|
-----------------------------------\--/--------\/-------7\-----|
------------------------------------\/------------------5\-----|
                                  ABUSO DEL WHAMMY!!!


4.      Tu Carcel

Intro:

E|-----------------------------------------------------|
B|o----------------------------------------------------|
G|--9/11--11p9\7----7-7-9-11-11--11-7h9--9p7\6---------|
D|-----------------------------------------------------|
A|o----------------------------------------------------|
E|-----------------------------------------------------|


E---------------------------------------------------|
B--------------------------------------------------o|
G--6-6-7-9-9--9-6h7--7p6\4---4-4-4-4-6-7-6-7/9-9----|
D---------------------------------------------------|
A--------------------------------------------------o|
E---------------------------------------------------|


D
Te vas amor si así lo quieres
      A
que puedo yo hacer, tu vanidad
        Bm
no te deja entender
G                      A        A7
que en la pobreza se sabe querer.

Esos son todos los acordes de la cancion


    Luego se toca el intro otra vez pero termina asi:

E---------------------|
B---------------------|
G--9b11r9b11r9b11r9---|
D---------------------|
A---------------------|
E---------------------|


Solo Final

E-15/17--17p15p14~-14-14-15-17-17--17-14h15--15p14\12---|
B-------------------------------------------------------|
G-------------------------------------------------------|
D-------------------------------------------------------|
A-------------------------------------------------------|
E-------------------------------------------------------|

E-12-12-14-15-15--15-12h14--14p12\10~-10-10-10-10-12-14--12-14-15--14-15-17--|
B----------------------------------------------------------------------------|
G----------------------------------------------------------------------------|
D----------------------------------------------------------------------------|
A----------------------------------------------------------------------------|
E----------------------------------------------------------------------------|

E-17b19r17p15--17~~---|
B---------------------|
G---------------------|
D---------------------|
A---------------------|
E---------------------|


Se repite el intro


5.      Mi Primer Sin Ti


E---------0------------------------------------------------------------------|
B-----2-----2------2--------5------7p4-----5p4--------3------5-3-----3p2-----|
G-------4-----4------4--------4--------4-------4--------2--------2-------2---|
D---2------------2--------6------6-------6----------4------4-----------------|
A-0---------------------4-------------------------2--------------------------|
E----------------------------------------------------------------------------|

E-----------------------------------------------7/9\7-----------|
B-----------------2----2-4-4/5--4----------5----7/9\7---5/7\5---|
G-1--2--4~----------4-------------6----------4----------4/6\4---|
D-2--2--2~------2-------------------7----6----------------------|
A-2--2--2~----0------------------------4------------------------|
E---------------------------------------------------------------|

E--------------------------------|
B-----3------5-3---3p2-----------|
G-------2---x----2-----2--1-2-4~-|
D---4------x--------------2-2-2~-|
A-2-------x---------------2-2-2~-|
E--------------------------------|


            f#m
   Que pronto te marcharias
           c#m
   sin ninguna explicacion,
           DM
   quizas te parezca facil
          bm                EM
   que soporte este dolor, uuuh!

   X3
-|------------------|------------------------------------------------------------|
-|o---------5/7-5~-o|-----------------------5/7-5~---------7sb~---------5/7-5~---|
-|--4/6-4-----------|-4/6--7-6-4~---4/6-4----------4/6-4--------4/6-4------------|
-|--------7---------|---------------------7--------------7------------7----------|
-|o----------------o|------------------------------------------------------------|
-|------------------|------------------------------------------------------------|

----------------------|
----------------------|
-4/6-7-6-4~-\1--------|
----------------2~~---|
----------------------|
----------------------|

         AM
A) Olvidaste algunas cosas
         c#m
   en tu rapido partir
         bm
   y ahora son como tesoros
         EM
   que conservo para mi


   Nunca me dijiste nada
   acerca de tu pasion
   seducir hasta ganarlo
   y despues decir adios.

         f#m
B) Sabes que te marcharias
         c#m
   sin ninguna explicacion
         DM
   quizas te parezca facil
         bm
   que soporte este dolor
         EM
   que carge con tu dolor


                    AM   c#m    f#m    AM
C) Porque este es mi primer dia sin verte
                DM   bm     EM
   este es mi primer dia sin ti
                AM       c#m   f#m     AM
   y la habitacion se me hace gigante
                     DM      bm        EM
   me siento tan pequeno si no estas aqui,
                     AM - c#m - bm - EM
   no lo puedo entender...

Solo:
     x2
-|------------------|--------------------------------------------------|
-|o---------5/7-5~-o|-----------------------5/7-5~--7/9-9-10p9-12b14~~-|
-|--4/6-4-----------|-4/6--7-6-4~---4/6-4------------------------------|
-|--------7---------|---------------------7----------------------------|
-|o----------------o|--------------------------------------------------|
-|------------------|--------------------------------------------------|

---------------------------------------------------|
-12b14r12b14r12p10\9-12~--12p10\9\7\5h7/9\7p==5~~--|
---------------------------------------------------|
---------------------------------------------------|
---------------------------------------------------|
---------------------------------------------------|

A) Cuando termino el verano
   todo parecia bien
   pero no me daba cuenta
   yo confiaba sin saber
A) Nunca...

B) Sabes...

C) Porque este es... (bis)
   no lo puedonentender

Outro:

---------------------------14-----------------------------------------------------|
------------------------------14-17b19~--17b19r17p14-17b19~---17b19r17p14---------|
-6 tremolo w/wah-------/16------------------------------------------------16b18~--|
----------------------------------------------------------------------------------|
----------------------------------------------------------------------------------|
----------------------------------------------------------------------------------|

|-----------------------------------------------------|----------------------------|
|o-14-17-17b19~-17b19r19p14-17b19~--17b19r17p14------o|----------------------------|
|-----------------------------------------------16b18~|-16p14-16----14-16b18\/\/---|
|-----------------------------------------------------|----------16----------------|
|o---------------------------------------------------o|----------------------------|
|-----------------------------------------------------|----------------------------|

----------------------------------------|
----------------------------------------|
-14h16/\--14h16p14~---/9--7--6----------|
--------------------------------7~~~~---|
----------------------------------------|
----------------------------------------|

Satriani

----------------------------------------------------------------------|
----10------------------------------10--------------------------------|
-/9----9-11b12~-11-9-7-9/11-9~~~-/9----9-11b12~--11-9-7-7/9~~-2~~~----|
----------------------------------------------------------------------|
----------------------------------------------------------------------|
----------------------------------------------------------------------|


------------------------------------------------------|
----10------------------------------------------------|
-/9----9-11b12~--11-9-7-9/11-11b12~--11-9-7-9/11-9~~~-|
------------------------------------------------------|
------------------------------------------------------|
------------------------------------------------------|

                                 T         T         T
---------------------------------------------------------------------------------|
-10-12-14-14b~~--12-10-12~--10~~=h12--14-12p10--14-12p10--14-12p10--many times---|
---------------------------------------------------------------------------------|
---------------------------------------------------------------------------------|
---------------------------------------------------------------------------------|
---------------------------------------------------------------------------------|

T      T     T     T     T     T     T     T    T    T    T    T    T
15-12-15-14-15-14-15-12-15-14-15-14-15-10-15-9-15-7-15-5-15-4-15-5-15-7----|
---------------------------------------------------------------------------|
---------------------------------------------------------------------------|
---------------------------------------------------------------------------|
---------------------------------------------------------------------------|
---------------------------------------------------------------------------|

 T    T    T    T    T    T    T    T    T    T    T      T    T
-15-5-15-4-15-2-15-4-15-5-15-4-15-2-15-0-15-2-15-4-15-4h5-15-4-15-2h4-5/7~~---|
------------------------------------------------------------------------------|
------------------------------------------------------------------------------|
------------------------------------------------------------------------------|
------------------------------------------------------------------------------|
------------------------------------------------------------------------------|

6.      La Muralla Verde

Intro:

|-----------------------2---|--------------------------------|
|--------5p4--4-------2-----|-------5p4-4-------10/11-11\10--|
|--------6p4--4---2/3-----0-|-------6p4-4--------------------|
|---------------------------|--------------4/---10/11-11\10--|
|--4--4-------2-------------|--4--4-----2--------------------|
|---------------------------|--------------------------------|

|----------------------------|---------------------------------|
|-------5p4--4-----------7---|-------5p4---4-----4\2-2---------|
|-------6p4--4---------6---0-|-------6p4---4-------------------|
|--------------4-----5-------|----------------4--4\2-2---1/2---|
|--4--4------2---4/6---------|--4--4-------2-------------------|
|----------------------------|---------------------------------|

|----------------------2---|----------------------------------|
|-------5p4--4-------2---0-|-------5p4--4----10/11-12--11\10--|
|-------6p4--4---2/3-------|-------6p4--4---------------------|
|--------------------------|-----------------10/11-12--11\10--|
|--4--4------2-------------|--4--4------2---------------------|
|--------------------------|----------------------------------|

|--------------------------------|----------------|
|-------5p4--4-----------7-------|-------5p4--4~~-|
|-------6p4--4---------6---------|-------6p4--4~~-|
|--------------------5----(let---|----------------|
|--4--4------2---4/6-------ring)-|--4--4------2~~-|
|--------------------------------|----------------|

                                                                            x3
|------------------------------|------------------11------------------------|
|o----------11b12~-11b12-11~---|-----------11b12~-----11b12r11p9-11p9------o|
|-------9----------------------|-------9---------------------------------9~-|
|--9h11---9--------------------|--9h11---9----------------------------11----|
|o-----------------------------|-------------------------------------------o|
|------------------------------|--------------------------------------------|

|---------------------------------------|---------------11------------------------------|
|----------11b12~-11-9-11-11b12-11-9-11-|---------11b12~---11b12r11p9-11p9--------------|
|------9--------------------------------|------9------------------------------9/11~/\/--|
|-9h11---9------------------------------|-9h11---9-------------------------11-----------|
|---------------------------------------|-----------------------------------------------|
|---------------------------------------|-----------------------------------------------|

c#m7                   F#M
Estoy parado sobre la muralla que divide
c#m7                  F#M
todo lo que fue y lo que será
  c#m7                   F#M
estoy mirando como esas viejas ilusiones
  c#m7                     F#M
pasando la muralla se hacen realidad
              d#m7     g#m
Pero como el amor de ayer
              d#m7     g#m
Pero como el amor de ayer

            d#m7 g#m      F#M
volvió a desaparecer, desaparecer

|------------------------------|------------------11-----------------------|
|-----------11b12~-11b12-11~---|-----------11b12~-----12r11p9-11p9---------|
|-------9----------------------|-------9------------------------------[9]~-|
|--9h11---9--------------------|--9h11---9-------------------------11------|
|------------------------------|-------------------------------------------|
|------------------------------|-------------------------------------------|


|------------------------------|------------------11------------------------------|
|-----------11b12~-11b12-11~---|-----------11b12~-----11b12r11p9-11p9-------------|
|-------9----------------------|-------9---------------------------------9/11/\/--|
|--9h11---9--------------------|--9h11---9----------------------------11----------|
|------------------------------|--------------------------------------------------|
|------------------------------|--------------------------------------------------|

c#m7                   F#M
Estoy parado sobre la muralla que divide
c#m7                   F#M
todo lo que amé de lo que amaré
  c#m7                    F#M
eeeestoy mirando como mis heridas se cerraron
  c#m7                       F#M
y cómo se desangra un nuevo corazón
              d#m7     g#m
Pero como el amor de ayer    Oy Tijuana!

Pero como el amor de ayer

volvió a desaparecer, desaparecer

SOLO:

E---------------------------------------|
B--------9~~----------------------------|
G--------9~~----------------------------|
D--------9~~---11p9--11b12r11b12r11~~---|
A---------------------------------------|
E--/18\---------------------------------|

E------------------------------9h11----9-12/14-12~---12p11----11-------------|
B—12b14~~--b14r12p9----9-11h12------12---------------------14----12----------|
G-------------------11----------------------------------------------11-13~~--|
D----------------------------------------------------------------------------|
A----------------------------------------------------------------------------|
E----------------------------------------------------------------------------|


E-------------11-14-12-11----12-11-------11--------------------------------------|
B----------12-------------14-------14-12----14/16--12-14—14b16==b17r14p12--14~~--|
G-------13-----------------------------------------------------------------------|
D-11h14--------------------------------------------------------------------------|
A--------------------------------------------------------------------------------|
E--------------------------------------------------------------------------------|

E------------------------------------|
B-12----12---------------------12b14-|
G----13----13p12\9-----11----9-------|
D-------------------11----11---------|
A------------------------------------|
E------------------------------------|

E-9-11----9---------11-12-14=p12p11----12\---|
B------12---9-12/14-----------------14-------|
G--------------------------------------------|
D--------------------------------------------|
A--------------------------------------------|
E--------------------------------------------|

                   T            T               T              T
E-12/14h16p12h14--17-16p14p12--16/17-16p14p12--16/17-16p14p12-17-16p14p12--|
B--------------------------------------------------------------------------|
G--------------------------------------------------------------------------|
D--------------------------------------------------------------------------|
A--------------------------------------------------------------------------|
E--------------------------------------------------------------------------|

    T       T       T       T       T       T
E----------------------------------------------------|
B--17--16--17--12--17--14--17--16--17--14--17--12~~--|
G----------------------------------------------------|
D----------------------------------------------------|
A----------------------------------------------------|
E----------------------------------------------------|

         T        T            T        T
E-------17-12h16-17-14p12\11--17-12h16-17-16p14p12-|
B-12h14--------------------------------------------|
G--------------------------------------------------|
D--------------------------------------------------|
A--------------------------------------------------|
E--------------------------------------------------|

       T            T             T      T      T
E------------------------------------------------------|
B-h16-17--16p14p12--16/17-12h16--17-16--17-14--17-12---|
G------------------------------------------------------|
D------------------------------------------------------|
A------------------------------------------------------|
E------------------------------------------------------|

   T    T      T        T     T      T
E----------------------------------------------------------|
B----------------------------------------------------------|
G-16-13-16-12-16-13\9--16-11-16-9p8-16-9p8\6\4h6--/8--9~---|
D----------------------------------------------------------|
A-------------------------------------------------/6--7~---|
E----------------------------------------------------------|

E--------------------------------------|
B--------------------------------------|
G---8--6-8---9--8-8\6--6-6-6-8-8-9-9---|
D---x--x-x---x--x-x-x--x-x-x-x-x-x-x---|
A---6--4-6---7--6-6\4--4-4-4-6-6-7-7---|
E--------------------------------------|

E---------------------------------------------------------------------------------------|
B---------------------------------------------------------------------------------------|
G-/11--11--11--/13---13--13---13-13--13/15--15--15--15/16--16/18--18--18--18-18--18/20--|
D---x---x---x----x----x---x----x--x---x--x---x---x---x--x---x--x---x---x --x--x---x--x--|
A--/9---9---9--/11---11--11---11-11--11/13--13--13--13/14--14/16--16--16--16-16--16/18--|
E---------------------------------------------------------------------------------------|

E-----------------------------------------------------------------------------|
B-----------------------------------------------------------------------------|
G-20--20---20-20--20/21--21--21---21/23---23--23--23----23-----23----23--23---|
D--x---x----x--x---x--x---x---x----x--x----x---x---x-----x------x-----x---x---|
A-18--18---18-18--18/19--19--19---19/21---21--21--21----21-----21----21--21---|
E-----------------------------------------------------------------------------|

E------------------------------------------|
B------------------------------------------|
G-23---23--23--23----23---23--23--23--23---|
D--x----x---x---x-----x----x---x---x---x---|
A-21---21--21--21----21---21--21--21--21---|
E------------------------------------------|

E-------------------------------------------------------------------------------|
B-------------------------------------------------------------------------------|
G-23--23-23----23--23---23-23-23---23--23---23-23----23-23-23-23-23-23-23-23\---|
D--x---x--x-----x---x----x--x--x----x---x----x--x-----x--x--x--x--x--x--x--x----|
A-21--21-21----21--21---21-21-21---21--21---21-21----21-21-21-21-21-21-21-21\---|
E-------------------------------------------------------------------------------|

E--------------------------------|
B-17b19r17--16-17-16-14-16-17~---|
G--------------------------------|
D--------------------------------|
A--------------------------------|
E--------------------------------|

E--------------------14\11--14-12-14/16-12---|
B-17p16p14--14-16h17-------------------------|
G--------------------------------------------|
D--------------------------------------------|
A--------------------------------------------|
E--------------------------------------------|

E----12\11----11-------------------------------------|
B-14-------14----12------------------------12b14~~---|
G-------------------13\11p10p9-----11----9-----------|
D-------------------------------11----11-------------|
A----------------------------------------------------|
E----------------------------------------------------|


E-9-9\7-----7------------------|
B-------9-9----7\5---5-7/9~~---|
G------------------8-----------|
D------------------------------|
A------------------------------|
E------------------------------|


E-------------------------------------------------------------------------------------|
B-7\4h5-7-----------------------------12~--11~--12-14-11~--12-12/14-14~/\--/----------|
G---------6/8~--8\6p4/6wb6wb\1/\--/--------------------------------------\/-----/6~---|
D-------------------------------\/---------------------------------------WB-----------|
A-------------------------------WB----------------------------------------------------|
E-------------------------------------------------------------------------------------|


"Circo"

Esta parte usa distorcion cubre la guitarra con la mano izquierda (resulta en 0 ruido) y 
la mano derecha ten el whammy y toca la guitarra como si fuera un cello o violin.

|--FEEDBACK------------------------------------|
|----------------------------------------------|
|-/6~~~~~--8~--9-9/11~--11-11/13-8~/\--/-------|
|------------------------------------\/--------|
|----------------------------------whammy------|
|----------------------------------------------|


Estoy parado sobre la muralla que divide

todo lo que fue de lo que será

  c#m                      F#M
estoy mirando como esa vieja sicodelia
  c#m                F#M
estoy fijándome como viene y va
              d#m7     g#m
Pero como el amor de ayer
              d#m7     g#m
Pero como el amor de ayer
            d#m7 g#m      F#M
volvió a desaparecer, desaparecer

Outro:

|--------------------------------|--------------------12----------------------------|
|-------------12b14~-12b14-12~---|-------------12b14~----12b14r12p10-12p10----------|
|-------10-----------------------|-------10-----------------------------------10~---|
|-10h12----10--------------------|-10h12----10-----------------------------12-------|
|--------------------------------|--------------------------------------------------|
|--------------------------------|--------------------------------------------------|

|----------------------------------|-------------------12----------------------------|
|-------------12b14~-12b14-12~-12~-|------------12b14~----12b14r12p10-12p10----------|
|-------10-------------------------|-------10----------------------------------10~---|
|-10h12----10----------------------|-10h12----10----------------------------12-------|
|----------------------------------|-------------------------------------------------|
|----------------------------------|-------------------------------------------------|

|----------------------------------|--------------------14-----------------------------|
|-------------14b15~-14b15-14~-14~-|-------------14b15~-----14b15r14p12-14p12----------|
|-------10-------------------------|-------12------------------------------------12~---|
|-10h12----10----------------------|-12h14----12------------------------------14-------|
|----------------------------------|---------------------------------------------------|
|----------------------------------|---------------------------------------------------|
                                                                     X8
|--------------------------------------------|--------------------14--------|
|-------------14b15~-14-12-14-14b15-14-12-14-|-------------14b15~----14b15~-|
|-------12-----------------------------------|-------12---------------------|
|-12h14----12--------------------------------|-12h14----12------------------|
|--------------------------------------------|------------------------------|
|--------------------------------------------|------------------------------|

Wah-Wah

|-----------------------------|
|----------12---12-11~--------|
|----11-13----13-------13-9~--|
|-11~-------------------------|
|-----------------------------|
|-----------------------------|

|-------------------------------------|
|----------12----12-11~--14-14~-\7~---|
|----11-13----13----------------------|
|-11~---------------------------------|
|-------------------------------------|
|-------------------------------------|


|-------------------------------------------|
|----------12----12-11~--\9-7-9-7h9p7-------|
|----11-13----13----------------------8/9---|
|-11~---------------------------------------|
|-------------------------------------------|
|-------------------------------------------|

|-----------------------------------|
|----------12----12-11~-16-17b19~~--|
|----11-13----13--------------------|
|-11~-------------------------------|
|-----------------------------------|
|-----------------------------------|

Wah off

|------------------------------------------------------------------|
|------------------------------------------------------------------|
|------------------------------------------------------------------|
|---------------------------------11-11--9--9----------------------|
|-11--11-11--11-11-11--11-11-11-0-9--9---7--7--11--11-11--11-11-11-|
|-9---9--9---9--9---9--9--9--9--0--------------9---9--9---9--9---9-|

Muchas Gracias!

7.      Mil Horas

Acordes:

c#m7,d#m7,g#m….c#m7,d#m7


Intro 2X:

 e--------------------|
 bo------6-7--7-6-----|
 g--6/8-----------8~--|
 d--------------------|
 ao-------------------|
 e--------------------|

 e-----6-6h7--7-6--|
 b-7/9-------------|
 g-----------------|
 d-----------------|
 a-----------------|
 e-----------------|

 e------4--4h6--6--4--|
 b-6/7---------------o|
 g--------------------|
 d--------------------|
 a-------------------o|
 e--------------------|


c#m7    d#m7         g#m
Hace frío y estoy lejos de casa,
      c#m7               d#m7             g#m
hace tiempo que estoy sentado sobre esta piedra,
         c#m7       d#m7           c#m (power chord)
yo me pregunto para que sirven las guerras


e----------------------------|
b----------------------------|
g----------------------------|  RIFF 2   4X
d----------------------------|
a--4~~--2-4--2-----------2---|
e--------------4---2-4-------|


Tengo un cohete en el pantalón,

y vos estas tan fría,

como la nieve a mi alrededor,

vos estas tan blanca,
           EM            <--- RIFF 2 TERMINA
que yo no se que hacer

g#m                                        c#m7
La otra noche te espere bajo la lluvia dos horas,
     d#m7           EM    EM-F#M
mil horas, como un perro,
g#m                                        c#m7
y cuando llegaste me miraste y me dijiste Loco,
        d#m7             EM
estas mojado, ya no te quiero  a…a...a

Intro X2

       c#m7      d#m7         g#m                             
Y en el circo vos ya sos una estrella,                        
        c#m7          d#m7          g#m una estrella roja que todos se la imagina,  se lo alucina
          c#m7
si te preguntan,
     d#m7     c#m  (power chord)
vos no me conocías, no, no

RIFF 2  4x

Tengo un cohete en el pantalón,

y vos estas tan fría,

como la nieve a mi alrededor,

vos estas tan blanca,
           EM            <--- Enter here
que yo no se que hacer

g#m                                        c#m7
La otra noche te espere bajo la lluvia dos horas,
     d#m7           EM     EM-F#M
mil horas, como un perro,
g#m                                        c#m7
y cuando llegaste me miraste y me dijiste Loco,
        d#m7             EM
estas mojado, ya no te quiero  aaaaaaaayeah….

Solo:

----------------------------------------------------------------|
-7p6-------6-7p6-------6-7p6-------6-7p6-------6-7p6-------6-7--|
-----8-6-8-------8-6-8-------8-6-8-------8-6-8-------8-6-8------|
----------------------------------------------------------------|
----------------------------------------------------------------|
----------------------------------------------------------------|


-6-9p6-------6-9p6-------6-9p6----|
-------9-7-9-------9-7-9-------9--|
----------------------------------|
----------------------------------|
----------------------------------|
----------------------------------|

-4-6p4-------4-6p4-------4-6p4----|
-------7-4-7-------7-4-7-------7--|
----------------------------------|
----------------------------------|
----------------------------------|
----------------------------------|

-----------------------------------------------------------------|
-6h7p6-------6-7p6-------6-7p6-------6-7p6-------6-7p6-----------|
-------8-6-8-------8-6-8-------8-6-8-------8-6-8-------8p6h8p6h8-|
-----------------------------------------------------------------|
-----------------------------------------------------------------|
-----------------------------------------------------------------|

---------------------------------------------------|
--11-12p11----------11-12p11----------11-12p11-----|
-----------13-11-13----------13-11-13----------13--|
---------------------------------------------------|
---------------------------------------------------|
---------------------------------------------------|

-11-14p11----------11-14p11----------11-14p11----11---|
----------12-11-12----------12-11-12----------12------|
------------------------------------------------------|
------------------------------------------------------|
------------------------------------------------------|
------------------------------------------------------|

----------------------------------------------------------------|
-14b16~~~-16r14-12\11--12/14--12\11---------9/11~-12p11---------|
------------------------------------13~--11-------------13-11~--|
----------------------------------------------------------------|
----------------------------------------------------------------|
----------------------------------------------------------------|

|-----------------------------------------------------------|
|-----------------------------------------------------------|
|-----13\9\8---------------------------6/8-8-----8-8-8-8-8--|
|---14-------9-------------------------x-x-x-----x-x-x-x-x--|
|-16-----------11\7--6--7--6--4--2/4---4/6-6-----6-6-6-6-6--|
|-----------------------------------------------------------|

|-------------------------------------|
|--------------11-12-14~--12-11-------|
|------9-11/13------------------13~---|
|-8/11--------------------------------|
|-------------------------------------|
|-------------------------------------|


-------11-12-14-12-11----12-11----------------11-----------|
-12h14----------------14-------14-12-11-12-14----14b16~~~--|
-----------------------------------------------------------|
-----------------------------------------------------------|
-----------------------------------------------------------|
-----------------------------------------------------------|


   RIFF 2 4x

Tengo un cohete en el pantalón,

y vos estas tan fría,

como la nieve a mi alrededor,

vos estas tan blanca,
           E            <--- Enter here
que yo no se que hacer

g#m                                        c#m7    
La otra noche te espere bajo la lluvia dos horas,  
     d#m7           EM      EM-F#M
mil horas, como un perro,
g#m                                        c#m7
y cuando llegaste me miraste y me dijiste Loco,
        d#m7  c#m7        d#m7          d#m (power chord)
estas mojado, loco estas mojado…… ya no te quiero……

Intro 4X

8.      Frances Limon

Intro:

|---------------------------------------------------------------------------------------|
|o-------8-10-10/12~-12/13-10~-7-8-10-8h10~-10/12-8~-5-7-8-7h8~-8/10-7~-5-5/7~-5-7-8~--o|
|---9-11--------------------------------------------------------------------------------|
|---------------------------------------------------------------------------------------|
|o-------------------------------------------------------------------------------------o|
|---------------------------------------------------------------------------------------|

   
am         B7        em     am        B7           em 
     Todo tiene el color,        de tus ojos, cómo ves
   am         B7       em       c#m7b5    am              B7       em (LICK)
     todo cambia, no así tu voz,      cuando me hablas en frances limón

              am    B7    em      c#m7b5
  En un barco de papel yo volvere
      F#M     BM    bm      em
  por ti mi amor frances limón
               am     B7     em     c#m7b5
  Las luces de la ciudad se apagaran
     F#M   BM    bm    em
  te besaré, me besarás.

     am       B7         em     am          B7         em
       Me encanta tu actitud,    dios conserve tu salud
     am      B7         em            c#m7b5     am   B7         em
       sólo por mirarte comprendí       para qué yo vine aquí    (LICK)

              am    B7    em      c#m7b5
  En un barco de papel yo volvere
      F#M     BM    bm      em
  por ti mi amor frances limón
               am     B7     em     c#m7b5
  Las luces de la ciudad se apagaran
     F#M   BM    bm    em
  te besaré, me besarás.

Solo:

------------------------------------------------------------------------------------|
------8h10-10/12~-12/13-10~-7-8-10-8/10~-10/12-8~---7-8-7h8~-8/10-7~-5-7~-5-7-8~----|
-9h11---------------------------------------------9---------------------------------|
------------------------------------------------------------------------------------|
------------------------------------------------------------------------------------|
------------------------------------------------------------------------------------|

--------------------|
------8-10-10/12~---|
-9h11---------------|
--------------------|
--------------------|
--------------------|

---------------------------------------------------14-17-15-14----15-14----14-14---------|
-13b15r13-12p10-/15-13-12\10-12-10h12~----------15-------------17-------17-------17b19~--|
---------------------------------------------16------------------------------------------|
---------------------------------------14h17---------------------------------------------|
-----------------------------------------------------------------------------------------|
-----------------------------------------------------------------------------------------|

----------------10\8\7~--7h8p7-------7---------------------------------------------|
-b19r17p15-17~-----------------10/12---8/10-10/12~--10p8-10/12~-12/15~-15/17~~~~~--|
-----------------------------------------------------------------------------------|
-----------------------------------------------------------------------------------|
-----------------------------------------------------------------------------------|
-----------------------------------------------------------------------------------|

     am       B7         em
       Me encanta tu actitud,
     am       B7         em
       de tus ojos, cómo ves

     am       B7         em       c#m7b5
       todo cambia, no así tu voz,
     am       B7         em      (lick)
       cuando me hablas en frances limón

              am    B7    em      c#m7b5
  En un barco de papel yo volvere
      F#M     BM    bm      em
  por ti mi amor frances limón
               am     B7     em     c#m7b5
  Las luces de la ciudad se apagaran
     F#M   BM    bm    em
  te besaré, me besarás.

Outro:

------------------------------------------------------------------------------------|
------8h10-10/12~-12/13-10~-7-8-10-8/10~-10/12-8~---7-8-7h8~-8/10-7~-5-7~-5-7-8~----|
-9h11---------------------------------------------9---------------------------------|
------------------------------------------------------------------------------------|
------------------------------------------------------------------------------------|
------------------------------------------------------------------------------------|

------------------------------------------------------------|
------------------------------------------------------------|
-----0-2-2h4~-4h5-2~---0-2~~-2/4----------------------------|
-2-4-----------------4-----------5~-2-4-5-4/5~-5/7-4~-2~----|
------------------------------------------------------------|
------------------------------------------------------------|

licks:

----------------------------|
------(12)-(7)--------------|
-(12)----------(7)-----(5)--|
-------------------(7)------|
----------------------------|
----------------------------|

|-3-3-3-2--0-2-3-2-3-5~--|
|------------------------|
|-4-4-4-2--0-2-4-2-4-5~--|
|------------------------|
|-----(2nd Verse)--------|
|------------------------|

|----------------------|
|-10p8\7--8p7\3--------|
|----------------------|
|-------(after solo)---|
|----------------------|
|----------------------|

9.      Eterna Soledad

Con slide

B|-----------------------------------|
G|-/12-12-9-9-5-2/5-12-12-9-9-5-5/9--|
D|-----------------------------------|

e|--------------------------------------------|
B|-----13/15-15/17-13-------------------------|
G|-/12----------------12-12/14-12-12-9-5/7-5--|
D|--------------------------------------------|

e|----------------------------------------|
B|-----13/15-15/17-13---------------------|
G|-/12----------------12-12/14-12-12-9-5--|
D|----------------------------------------|
            C               F
Eterna soledad, el tiempo danza en la madrugada,
               C                       F
Y no podés dormir si están todas las luces apagadas.
        Am        C           Dm           G         Am C
Ya se fué el tren y esta calle nunca más será igual.
       Dm              G          F          E        Am
Aprendiste a tener miedo pero hay que correr el riesgo
          F        G       C   F C F
de levantarse y seguir cayendo.

B|-----------------|
G|-/12---12-9-9-5--|
D|-----------------|
                    C                    F         G
No hay nada que perder cuando ya nada queda en el vaso.
             C                        F         G
Y no podés saber que fuerte es el poder de un abrazo.
        Am        C             Dm           G       Am   C
Ya se fue el tren y esta calle nunca más será igual.
      Dm              G           F          E       Am  C
Aprendiste a tener miedo pero hay que correr el riesgo
         F          E     Am  C
de levantarse y seguir cayendo.
      F          E       Am    C           F          G      C
Pero hay que correr el riesgo de levantarse y seguir cayendo.
      Am    B7                                     Em
Yo lo sé que nadie te dijo para que todos están aquí.
    Am#    A7  Dm                              F         G
Yo sé la soledad te da un cierto confort, no te deja mirar.

            C F G          C                       F           G
Eterna soledad, eterna soledad... sé que la gente busca tu consejo.

e|----/15-15-15-15-12-12-------/15-15/17-15-12-8--|
B|-/13-------------------13-13--------------------|
G|------------------------------------------------|
F           E       Am   C        F         E      Am  C
Hay que correr el riesgo de levantarse y seguir cayendo.
e|---------------15-13-8--------------15/17-17-15-12-8--|
B|--8-8/10-10/13---------8-8/10-10/13-------------------|
G|------------------------------------------------------|
      F          E       Am            F          G     C
Pero hay que correr el riesgo de levantarse y seguir cayendo.
e|----------------------------------------------------------15-15-12-12-8--|
B|--8-8/10-10/13---------------------------------------5/13~---------------|
G|-------------------------------------------------------------------------|


10.     Ay Dolores

-> Intro : En Do Mayor con ritmo ranchero o-> tiempo a 3/4.


// -----> significa tocalo 2 veces.

C
El curso que toman las cosas,

                  G
a veces es inesperado,


y sin pensarlo siquiera,

                     C
te toca el dolar marcado,


brindemos con esta botella,

    C7            F
hasta bebernos el gusano,

   F
// brindemos campeon,

   C
brindemos chavon,

   G                C       C7
un toque y seguimos andando. //


  C
Venid contadme tu suerte,

                    G
tus penas, tus alegrias,


al cielo damos la gracias,

                           C
por las cosas lindas de la vida.


C
Que no nos falte el trabajo,

C7                    F
tampoco nos falte un tajo,

   F
// la buena salud,

   C
al norte y al sur,

   G               C      C7
venid y fumemos un caño. //

C
Ay, ay, ay, ay, ay,

            G
ay, ay, Dolores !,   ( ay, ay, ay )

                            C     C7
tus ojos son dos petalos de mas,

    F                            C
y si llega el día en que tu me traiciones,

G                    C      C7
la vida no podría soportar,

     F                            C
y si llega el día en que tu me abandones,

                   G          C
yo me iré con los mariachis a tocar.

***** ¿ Que te parece si ahora metemos ritmo de Guapango ? ********
***** Se esta poniendo chipocludo esto, ¿¿¿ no crees ???   ********

-> Ahora con ritmo Guapango.

-> El intro tambien en Do Mayor.

C
No todo es siempre dinero,

                    G
no compra los sentimientos,


a mis amigos los quiero,

                      C
en mi corazón yo los llevo.


C
Tampoco vale la pena,

      C7                 F
que el mundo tenga mas guerras,

    F
// la vida se va,

            C
no te esperará,

     G               C         C7
brindemos con esta botella. //


**** Mas chipocludo aún vamos con ritmo Rock y del pesado jeje ****

uno, dos, tres, cuatro,

C
Ay, ay, ay, ay, ay,

            G
ay, ay, Dolores !,

                            C     C7
tus ojos son dos petalos de mas,

    F                            C
y si llega el día en que tu me traiciones,

G                    C      C7
la vida no podría soportar,

     F                            C
y si llega el día en que tu me abandones,

                   G          C
yo me iré con los mariachis a tocar.


******* FINAL ********

    F                            C
y si llega el día en que tu me traiciones,

                   G          C
yo me iré con los mariachis a tocar.


11.     Cordillera


1/-------------------------------------------------------|
2/----10----10-10----10----10s8----8----8-8----8----8s10-|
3/--9-----9--------9-----9-------7----7------7----7------|
4/-------------------------------------------------------|
5/-------------------------------------------------------|
6/-------------------------------------------------------|

/-----------------------------------------------------|
/----10----10-10----10----10s8----8---8---------------|
/--9-----9--------9-----9-------7---7----10--9--7—-5--|
/-----------------------------------------------------|
/-----------------------------------------------------|
/-----------------------------------------------------|

/-------------------------------------------------------|
/----10----10-10----10----10s8----8----8-8----8----8s10-|
/--9-----9--------9-----9-------7----7------7----7------|
/-------------------------------------------------------|
/-------------------------------------------------------|
/-------------------------------------------------------|

/-----------------------------------------------------|
/----10----10-10----10----10s8---------8--------------|
/--9-----9--------9-----9-------7-7—7----10--9--7—-5--|
/-----------------------------------------------------|
/-----------------------------------------------------|
/-----------------------------------------------------|

Lead:

1/---------8-7-5----------7-5-3----------5-3-----5-5-------------------|
2/--5-5-5--------5--5-5-5-------3—-3-3-3-----3s5------5------5---3-----|
3/------------------------------------------------------5---5------4---|
4/--------------------------------------------------------7----------6-|
5/---------------------------------------------------------------------|
6/---------------------------------------------------------------------|

/-----------12-10-8--------------10-8-7----------7s8-7-------------|
/--10-10-10---------10—-10-10-10--------8—-8-8-8-------8—-10s13-13-|
/------------------------------------------------------------------|
/------------------------------------------------------------------|
/------------------------------------------------------------------|
/------------------------------------------------------------------|

/--12-------12—-10--------------------|
/----13---13------12----12-13—-10-----|
/------14-----------13-------------1--|
/----------------------------------2--|
/----------------------------------2--|
/----------------------------------0--|


am                 GM
Quien te ha visto quien te ve
am                 GM
En la Cordillera de los Andes    aauuuumm
am          GM           am      GM
Nunca me dejas de sorprender

am             GM
Viento blanco que más da
am                 GM
que por mí pueden pasar las horas
am               GM             am
quiero estar contigo un tiempo más  yeeaahh

1/---------8-7-5----------7-5-3-----------5s8—7--------------|
2/--5-5-5--------5--5-5-5-------3—-3-3-3---------8—10s13-13--|
3/-----------------------------------------------------------|
4/-----------------------------------------------------------|
5/-----------------------------------------------------------|
6/-----------------------------------------------------------|

/--12-------12—-10-----|
/----13---13------12---|
/------14-----------13-|
/----------------------|
/----------------------|
/----------------------|

am            GM          am     GM
Y asi podrán pasar los años
am     GM             am       GM
y yo tomar mil direcciones
am          GM              am
Sé que he dejado un mundo atrás
           GM          am
siguiendo siempre un ideal
           GM       FM
como un valiente cazador
    GM
de las estrellas

am            GM
se vive, la libertad
am             GM
se siente, la libertad
am              GM          am         GM
te envuelve, la magia del lugar

am            GM
se vive, la libertad
am             GM
se siente, la libertad
am              GM          am         GM
te envuelve, la magia del lugar

(solo):

1/------------7-8-7----------------------------------------------------------|
2/-------8-10-------8--------------------5-8-5-6~-5---5/6--5-----------------|
3/-7/9~~--------------7\5-4/5\4----5-7-5-----—------7--------7-5-7/9\7-5—7~--|
4/------------------------------5~-------------------------------------------|
5/---------------------------------------------------------------------------|
6/---------------------------------------------------------------------------|

----------------|
---5------------|
—5---5-7-5/7~~--|
----------------|
----------------|
----------------|

--------------7-8-7---------7----------------10-12-13-12-10-12-13-|
---------8-10-------10-8-10---10~—--10-12-13----------------------|
--7-9-10----------------------------------------------------------|
------------------------------------------------------------------|
------------------------------------------------------------------|
------------------------------------------------------------------|

--15-13-12-13-15-17-17----13-12-13-12-------------|
--------------------------------------15-15b17~---|
--------------------------------------------------|
--------------------------------------------------|
--------------------------------------------------|
--------------------------------------------------|

----------------------------------------------------------|
-r15p13p12-13/15-13-12-10----10-10h12-10~--8--------------|
--------------------------12-----------------9\8p7----1---|
---------------------------------------------------9--2---|
------------------------------------------------------2---|
------------------------------------------------------0---|


am                 GM
Quien te ha visto quien te ve
am                      GM
En la Cordillera de los Andes    aauuumm
am         GM             am      GM
Nunca me dejas de sorprender

am             GM
Viento blanco que más da
am                          GM
que por mí pueden pasar las horas
am                   GM                       am                GM
quiero estar aquí en Phoenix unos cuantos días más por lo menos


am      GM        am   GM
hay una nube pasajera
am      GM      am       GM
tocando los picos nevados
am          GM         am
Sé que he dejado un mundo atras
am         GM           am
siguiendo siempre un ideal
am          GM       FM
como un valiente cazador
    GM
de las estrellas

am            GM
se vive, la libertad
am             GM
se siente, la libertad
am              GM          am      GM
te envuelve, la magia del lugar

am            GM
se vive, la libertad
am             GM
se siente, la libertad
am              GM          am      GM
te envuelve, la magia del lugar

se vive...
se siente...
te envuelve, la magia del lugar

se vive...
se siente...
te envuelve, la magia del lugar

am            GM
se vive, la libertad
am             GM
se siente, la libertad
am              GM          am      GM
te envuelve, la magia del lugar

1/---------8-7-5----------7-5-3----------5-3-----5-5-------------------|
2/--5-5-5--------5--5-5-5-------3—-3-3-3-----3s5------5------5---3-----|
3/------------------------------------------------------5---5------4---|
4/--------------------------------------------------------7----------6-|
5/---------------------------------------------------------------------|
6/---------------------------------------------------------------------|

/-----------12-10-8--------------10-8-7----------7s8-7-------------|
/--10-10-10---------10—-10-10-10--------8—-8-8-8-------8—-10s13-13-|
/------------------------------------------------------------------|
/------------------------------------------------------------------|
/------------------------------------------------------------------|
/------------------------------------------------------------------|

/--12-------12—-10----------------|
/----13---13------12----12-13—-10-|
/------14-----------13------------|
/---------------------------------|
/---------------------------------|
/---------------------------------|
Acá termina y después vuelve a empezar:

1/-------------------------------------------------------|
2/----10----10-10----10----10s8----8----8-8----8----8s10-|
3/--9-----9--------9-----9-------7----7------7----7------|
4/-------------------------------------------------------|
5/-------------------------------------------------------|
6/-------------------------------------------------------|

/-----------------------------------------------------|
/----10----10-10----10----10s8----8---8---------------|
/--9-----9--------9-----9-------7---7----10--9--7—-5--|
/-----------------------------------------------------|
/-----------------------------------------------------|
/-----------------------------------------------------|

/-----------------------------------------------------------------|
/--------10-10----10-10----10----10s8------8-8----8-8----8---8s10-|
/--9-9-9--------9--------9-----9-------7-7-----7------7----7------|
/-----------------------------------------------------------------|
/-----------------------------------------------------------------|
/-----------------------------------------------------------------|

/---------------------------------------------------------------|
/--------10-10----10-10----10----10s8----8----8-----------------|
/--9-9-9--------9--------9-----9-------7----7----10-9-7---------|
/-------------------------------------------------------10------|
/---------------------------------------------------------------|
/---------------------------------------------------------------|

/--------------------------------------------------------|
/---------13-13-----13-13-----13-13-13-12---------12-12—-|
/--12-12---------12--------12--------------12-12---------|
/--------------------------------------------------------|
/--------------------------------------------------------|
/--------------------------------------------------------|

/--------------------------|
/----12-12-----12----12-13-|
/-12--------12----12-------|
/--------------------------|
/--------------------------|
/--------------------------|

/------------------------------------------------|
/---------13-13-13-----13-13-13-----13-13-13-12--|
/--12-12------------12-----------12--------------|
/------------------------------------------------|
/------------------------------------------------|
/------------------------------------------------|

/----------------------------------|
/--------12----13-12-10----10------|
/--12-12----12----------12---------|
/----------------------------------|
/----------------------------------|
/----------------------------------|

1/-------------------------------------------------------|
2/----10----10-10----10----10s8----8----8-8----8----8s10-|
3/--9-----9--------9-----9-------7----7------7----7------|
4/-------------------------------------------------------|
5/-------------------------------------------------------|
6/-------------------------------------------------------|
                                                           am(x3)
/----------------------------------------------------------5---|
/----10----10-10----10----10s8----8---8--------------------5---|
/--9-----9--------9-----9-------7---7----10--9--7—-5-------5---|
/----------------------------------------------------------7---|
/----------------------------------------------------------7---|
/----------------------------------------------------------5---|

12.     Mejor no Hablemos de Amor

bm,GM x3 AM

con wah

E--x-x-----------|
B--x-x-----------|
G--x-x-2h4-4-4---|
D--x-x-----------|
A--x-x-----------|
E--x-x-----------|

Bridge:

EM,GM,DM,AM   

solo 1:
E-------------------------------------------------------------|
B-10b12~-b12r10p7-10-10b12~--b12r10p7-------------------------|
G-------------------------------------9b10--b10r9p7---9---7---|
D---------------------------------------------------9---9-----|
A-------------------------------------------------------------|
E-------------------------------------------------------------|

E-------------10\9-10-9----------------------------------------------------------|
B-10/12----12-----------10------------10p=7-10/12-10~-12/14-12-14--15b17r15p12---|
G---------x----------------9\6-7-9-----------------------------------------------|
D--------x--------------------------7--------------------------------------------|
A-------x------------------------------------------------------------------------|
E--------------------------------------------------------------------------------|

E----------14-------------------------------------------------------|
B-14-15-17----15/17~-14-15-17b19~-b19r17p15\14----15p14-14h15-------|
G----------------------------------------------16-------------14~---|
D-------------------------------------------------------------------|
A-------------------------------------------------------------------|
E-------------------------------------------------------------------|

E------------9-10-12-10-9--------------------------------------------------|
B------10-12--------------12-10-12-10h12-10----------------------------0---|
G-9/11--------------------------------------11\9p7---9---7-9b11r9-7~---1---|
D--------------------------------------------------9---9---------------2---|
A----------------------------------------------------------------------2---|
E----------------------------------------------------------------------0---|

solo 2:

E--------9-9h10-----7-7/9-------------------9-9h10-----7-7/9-------------------|
B-10/12~--------10~---------------------12~--------10~-------------------------|
G-------------------------11~-7/9-7-6~-----------------------11~---9-6-7/18~---|
D------------------------------------------------------------------------------|
A------------------------------------------------------------------------------|
E------------------------------------------------------------------------------|

13.     Luz de Dia

Intro:  am   GM   dm   FM   CM   GM

                  am              GM
Destapa el champagne, apaga las luces
             dm         FM
dejemos las velas encendidas
     CM          GM
y afuera las heridas
               am                GM
ya no pienses mas en nuestro pasado
              dm         FM
hagamos que choquen nuestras copas
       CM           GM
por habernos encontrado

y porque
    CM            GM               am
Puedo mirar el cielo, besar tus manos
            FM               CM
sentir tu cuerpo, decir tu nombre
         GM               am
y las caricias seran la brisa
              FM
que aviva el fuego
           CM   GM            am    FM
de nuestro amor, de nuestro amor
  CM               GM                 am
puedo ser luz de noche, ser luz de día
           FM               CM
frenar el mundo por un segundo
          GM              am
y las caricias seran la brisa
              FM
que aviva el fuego
           CM   GM            am    FM
de nuestro amor, de nuestro amor

Solo: am   GM   FM  CM   GM

             am                 GM
El tiempo dejó su huella imborrable
                   dm         FM
y aunque nuestras vidas son distintas
      CM          GM
esta noche todo vale
               am                   GM
tu piel y mi piel, ves que se reconocen
         dm         FM     CM
es la memoria que hay en nuestros
     GM
corazones, y porque...
    CM            GM               am
Puedo mirar el cielo, besar tus manos
            FM               CM
sentir tu cuerpo, decir tu nombre
         GM              am
y las caricias seran la brisa
              FM
que aviva el fuego
           CM   GM            am    FM
de nuestro amor, de nuestro amor
  CM               GM             am
puedo ser luz de noche, luz de día
           FM              CM
frenar el mundo por un segundo
          GM               am
y que me digas cuanto querías
            FM
que esto pasara
       CM    GM         am    FM
una vez mas, y otra vez mas, y porque
  CM,
Puedo mirar...

CM        GM      am    FM
sin tu amor no sé vivir
     CM             GM
porque sin tu amor
        am      FM
yo me voy a morir de pena...

Solo:

e-------12~~-12-13-15-13-12-13-12-/10--8~---|
B-------------------------------------------|
G-10/12------12-14-16-14-12-14-12-/10--9~---|
D-------------------------------------------|
A-------------------------------------------|
E-------------------------------------------|

e-3/7—8/10—8\7-7\5--5/7\3~~-------------|
B---------------------------8/10\5—5-3--|
G---------------------------------------|
D---------------------------------------|
A---------------------------------------|
E---------------------------------------|

e-12-12-13-15--13-12-----------------------|-12\7-7/10—10\5—5/7\3~---|
B--------------------13----13/15\13--15/17-|-------------------------|
G-----------------------14-----------------|-------------------------|
D------------------------------------------|-------------------------|
A------------------------------------------|-------------------------|
E------------------------------------------|-------------------------|

14.     Guitarras Blancas 

|-8-8-8-8----------8-8-8-8-------8-8-----8-8--------8\-----8\---|
|-8-8-8-8----------8-8-8-8-------8-8-----8-8--------8\-----8\---|
|-8-8-8-8----------8-8-8-8-------8-8-----8-8--------8\-----8\---|
|---------------------------------------------------------------|
|---------------------------------------------------------------|
|---------------------------------------------------------------|

|-8-8-8-8--8-8-8-8-8\---|
|-8-8-8-8--8-8-8-8-8\---|
|-8-8-8-8--8-8-8-8-8\---|
|-----------------------|
|-----------------------|
|-----------------------|


Verso 1

cm 
Una guitarra blanca

Gtr. 2

w/ Slide
e--------------|
B--8/10==\8~---|
G--8/10==\8~---|
D--------------|
A--------------|
E--------------|


rompiendo el silencio

es de lo mas honesto

que yo ahora puedo escuchar


BbM                      cm
Por favor, dejennos bailar

BbM                       cm
Por favor que nos dejen bailar



Verso 2

cm
Es uno de esos dias

en que me duele la garompe

Y aunque estoy cansado

yo necesito un poco de diversion

BbM                      cm
Por favor, dejennos bailar

BbM                       cm
Por favor que nos dejen bailar


CHORO

AbM          BbM            AbM
No hablen ahora de Nueva York
            BbM            AbM
estar en Roma o Disneyworld
            BbM                      cm
yo solo quiero que nos dejen bailar aca    

                      
Verso 3

cm
No es un escapismo

no estoy bajando la guardia

Yo solo necesito tan solo

un poco, un poco de diversion

BbM                      cm
Por favor, dejennos bailar

BbM                       cm
Por favor que nos dejen bailar


CHORO

AbM          BbM            AbM
No hablen ahora de Nueva York
            BbM            AbM
estar en Roma o Disneyworld
            BbM                      cm
yo solo quiero que nos dejen bailar aca    


Gtr.1

|-------------------------------------|
|-8--------8-7-------7-6-------6-5\---|
|---8----8-----7---7-----6---6--------|
|-----10---------9---------8----------|
|-------------------------------------|
|-------------------------------------|

Gtr.2

|----------------------------------------------------|
|-15----------15-14----------14-13----------13-12\---|
|----15----15-------14----14-------13----13----------|
|-------17-------------16-------------15-------------|
|----------------------------------------------------|
|----------------------------------------------------|

Gtr. 1

|-----------------|-------------------|
|o---------------o|-------------------|
|-----------------|-------------------|
|--------1--------|-------------------|
|o-3-1-----1-3~--o|----3-1---1-2-3~---|
|------3----------|--------3----------|
x8

Gtr. 2 

|---------------------|-------------------|
|o-------------------o|-------------------|
|----------8----------|-------------------|
|--10-8------8-10~----|--10-8----8-9-10~--|
|o------10-----------o|-------10----------|
|---------------------|-------------------|
    x8

SOLO

|----------------------------------------------------------------|
|-/15-15-15-14-14-14-14\10-10-10-10/12-12-12~~~--12\7---7\5\--/--|
|-----------------------------------------------------------\/---|
|----------------------------------------------------------------|
|----------------------------------------------------------------|
|----------------------------------------------------------------|

|------------------------------------------------------------------------------|
|-/15-15-15-14-14-14-14/17-17-17-17\12-12-12-/19-19-19-19\12-12-12-12/20b22~~--|
|------------------------------------------------------------------------------|
|------------------------------------------------------------------------------|
|------------------------------------------------------------------------------|
|------------------------------------------------------------------------------|

CHORO

AbM          BbM            AbM
No hablen ahora de Nueva York
            BbM            AbM
estar en Roma o Disneyworld
            BbM                      cm
yo solo quiero que nos dejen bailar aca    


Outro:

|-8------8-------10-----10------11-----11------13----13------15----15-----18-------|
|-11b13--11b13~--13b15--13b15~--14b16--14b16~--16b18-16b18~--18b20-18b20~-21b23~---|
|----------------------------------------------------------------------------------|
|----------------------------------------------------------------------------------|
|----------------------------------------------------------------------------------|
|----------------------------------------------------------------------------------|

|--------------------------------------------------------------------------|
|-11b13r11p8----11b13r11p8----11b13r11p8----11b13r11p8----8h11p8----8h10p8-|
|------------10------------10------------10------------11--------11--------|
|--------------------------------------------------------------------------|
|--------------------------------------------------------------------------|
|--------------------------------------------------------------------------|

|----------------------------------------|
|----8-----------------------------------|
|-11---11p10p8----10----8-10b12\-------/-|
|--------------10----10---------\-/\/\/--|
|--------------------------------\-------|
|----------------------------------------|

              T           T     T           T     T          T
|---------------------------------------------------------------------|
|---------------------------------------------------------------------|
|-8-10p8h10-13-12p10p8--13-12-13-12p10p8--13-12-13-10p8h12-13-12p10p8-|
|---------------------------------------------------------------------|
|---------------------------------------------------------------------|
|---------------------------------------------------------------------|

  T              T  T                 T         T          T        
|----------------------------------------------------------------|
|----------------------------------------------------------------|
|------------------13-12p10p8\7/8h12-13-10p8---------------------|
|-13-12p10p8h12-13---------------------------12-13-12p10p8-13-8--|
|----------------------------------------------------------------|
|----------------------------------------------------------------|

   T      T      T      T     T     T     T
|----------------------------------------------|
|----------------------------------------------|
|----------------------------------------------|
|-13-10--13-12--13-10--13-8--13-5--13-3--13-1~-|
|----------------------------------------------|
|----------------------------------------------|

|-------8-10-11/13-11-10-11/15-15-15-15/18-18-18/20-20-20-20-20-20~~-20\--|
|-11b13-------------------------------------------------------------------|
|-------------------------------------------------------------------------|
|-------------------------------------------------------------------------|
|-------------------------------------------------------------------------|
|-------------------------------------------------------------------------|
15.Lamento Boliviano

   em   bm   am   B7
e---7----7----5----7---|
B---8----7----5----7---|
G---9----7----5----8---|
D---9----9----7----7---|
A---7----9----7----9---|
E---7----7----5----7---|

em, bm, am, em, B7

Toda la cancion

Solo 1:

E------------------------------------------------|
B------7-8-7----------7-8~-7---------------------|
G----9-------9-------7-------9-7-9/11\9----------|
D-/9-----------9~---9--------------------7/9\7---|
A------------------------------------------------|
E------------------------------------------------|

E-------------12---------------------------------------------------------|
B----------12----15b17r15p12---------------------------------------------|
G-14b16r14-------------------14b16r14p12--14=b16r14p13p12----14----12~---|
D---------------------------------------------------------14----14-------|
A------------------------------------------------------------------------|
E------------------------------------------------------------------------|

E-----------------------------|
B----------------------12~~---|
G-/11--12-14-/11-12-14--------|
D-----------------------------|
A-----------------------------|
E-----------------------------|

E----------12-------12----15----12-------------------------------------15-17-15h17~---|
B-------12----12-15----12----12----12----------------------------15-17----------------|
G-14b16-------------------------------14b16r14p12-14----12-14/16----------------------|
D----------------------------------------------------14-------------------------------|
A-------------------------------------------------------------------------------------|
E-------------------------------------------------------------------------------------|

E-17p15-17-17/19--15-17--------|
B-----------------------17~~---|
G------------------------------|
D------------------------------|
A------------------------------|
E------------------------------|

E----15-17-18-19-18-17--15-17-18-19-18-17--15-17-17b19r17p15-17---|
B-17--------------------------------------------------------------|
G-----------------------------------------------------------------|
D-----------------------------------------------------------------|
A-----------------------------------------------------------------|
E-----------------------------------------------------------------|

E-15\14------------------------------------------------12~~---|
B-------15-------------15\12---------------------------12~~---|
G----------14\11-12-----------14p12--14b16r14p12-------12~~---|
D-------------------12-----------------------------12---------|
A-------------------------------------------------------------|
E-------------------------------------------------------------|

OUTRO y solo 2:

E----------------------------------------------------|
B-8p7--------------------8p7-------------------------|
G-----9p7-9~---9---9-7~------9p7-9~-----9---9-7~-----|
D------------9---9------------------7-9---9----------|
A----------------------------------------------------|
E----------------------------------------------------|

E--------------------------------------------------|
B-------8-----------10------8p7--------------------|
G-----7---9~------9----11~------9-7-9~-----7h9-7---|
D-7h9--------9h11----------------------7-9---------|
A--------------------------------------------------|
E--------------------------------------------------|

E----------------------------------------------------|
B----------------8p-7---------------8p-7-------------|
G-5~--5-5/7-7----7-(7)--5~-5/7-7----7-(7)--5~--7-7---|
D-5~--5-5/7-7----7-(7)--5~-5/7-7----7-(7)--5~--7-7---|
A-3~--3-3/5-5-----------3~-3/5-5-----------3~--5-5---|
E-------------0------------------0-------------------|

E------------------------------------------|
B------------------------------------------|
G--------11-12-12/14~--12-11~--11\7-9-9~---|
D-----14-----------------------------------|
A-/14--------------------------------------|
E------------------------------------------|

E----------------------------------------|
B----------------------------------------|
G--------11-12-12/14~--12-11-12/16-16~~--|
D-----14---------------------------------|
A-/14------------------------------------|
E----------------------------------------|

E---------------------------------------------------------------------------|
B--------------------------------------12~-12\------------------12-10-8\7---|
G--------11-12-14~------------11-12-14-----------------11-12-14-------------|
D-----14-------------------14-----------------------14----------------------|
A-/14------------------/14----------------------/14-------------------------|
E---------------------------------------------------------------------------|

E-------------------------------------------------------------|
B-9/10-8-7---/7-7---/7-7---/7-7---/7-7---7-8-10-6/7-----------|
G----------9------9------9------9------9------------7---------|
D-----------------------------------------------------9~-9~---|
A-------------------------------------------------------------|
E-------------------------------------------------------------|

E----------------------7-10-8-7----8-7------7-------------|
B---------7h8---7-8-10----------10-----10-8---10/11b12~---|
G---6-7h9-----9-------------------------------------------|
D-9-------------------------------------------------------|
A---------------------------------------------------------|
E---------------------------------------------------------|

E-7---------------------------------------------|
B---10-8-7-8-10-10/12~-12\10-8-8--7-8-10-8-7~---|
G-----------------------------------------------|
D-----------------------------------------------|
A-----------------------------------------------|
E-----------------------------------------------|

E----------------------------------------------------|
B-5-3-5/7~-3---------------------3-5-7~---10-10-10---|
G------------2--0-2b3r2p0----2/4--------9------------|
D-------------------------2~-------------------------|
A----------------------------------------------------|
E----------------------------------------------------|

E-----12-15p12-14p12-15p12-17p12-15p12-14p12-15p12-17p12-15p12-14p12-15p12-17p12-15p12-14p12---|
B-/14------------------------------------------------------------------------------------------|
G----------------------------------------------------------------------------------------------|
D----------------------------------------------------------------------------------------------|
A----------------------------------------------------------------------------------------------|
E----------------------------------------------------------------------------------------------|

E-15p12-17p12-15p12-14p12-15p12-17p12-15p12---|
B---------------------------------------------|
G---------------------------------------------|
D---------------------------------------------|
A---------------------------------------------|
E---------------------------------------------|


E---------------------------------------------------------------------------------------------|
B-15p12-15p12-17p12-15p12-17p12-15p12-17p12-15p12-17p12-15p12-17p12-15p12-17p12-15p12----12---|
G-------------------------------------------------------------------------------------15------|
D---------------------------------------------------------------------------------------------|
A---------------------------------------------------------------------------------------------|
E---------------------------------------------------------------------------------------------|

E------------------------------------------------------------------------------------------------|
B------------------------------------------------------------------------------------------------|
G-15-14p12----12-15-14p12----12h15p12----12h15p12----12h15p12----12h15p14p12----12h15p14p12------|
D----------15-------------15----------15----------15----------15-------------15--------------15--|
A------------------------------------------------------------------------------------------------|
E------------------------------------------------------------------------------------------------|

E-----------------------------------------------------------------------|
B-----------------------------------------------------------------------|
G-12h15p14p12-----12h15p14p12--------------------------------------12---|
D-------------15--------------15--12-------------------------12-14------|
A------------------------------------14-14\12p10----10-12/14------------|
E------------------------------------------------12---------------------|


E----------------------------15-17=b19r17p15----17----15-17-18-19-18-17-15-------|
B-------15-17-17b19r17p15--------------------17----17----------------------17~---|
G-14/16-------------------16-----------------------------------------------------|
D--------------------------------------------------------------------------------|
A--------------------------------------------------------------------------------|
E--------------------------------------------------------------------------------|

E-----------------15~----------15~----------15~----------15~----------15~----------15~---|
B-----15-17p15--------17p15--------17p15--------17p15--------17p15--------17p15----------|
G-/16----------16-----------16-----------16-----------16-----------16-----------16-------|
D----------------------------------------------------------------------------------------|
A----------------------------------------------------------------------------------------|
E----------------------------------------------------------------------------------------|

E----------15~---|
B-17p15----------|
G-------16-------|
D----------------|
A----------------|
E----------------|

E-15\14----14----14~----14-15-17-15-17--17-16-15--14----14------------------------------|
B-------17----17-----17------------------------------17----15---------------------------|
G-------------------------------------------------------------16\14p13p12----14----12---|
D-------------------------------------------------------------------------14----14------|
A---------------------------------------------------------------------------------------|
E---------------------------------------------------------------------------------------|

E--------12----12\10--------10-------10-------10---------10-----9s10------|
B-15b17~----15--------12h14----12h14----12h14----12h14------14-------14---|
G-------------------------------------------------------------------------|
D-------------------------------------------------------------------------|
A-------------------------------------------------------------------------|
E-------------------------------------------------------------------------|

E-10-----------------------10----------------------------------------10-----10-12------|
B----14p12p10-----10h12h14----14----10----------------------10h12h14----14--------14---|
G-------------14-----------------14----14p12p11----11h12h14----------------------------|
D-----------------------------------------------14-------------------------------------|
A--------------------------------------------------------------------------------------|
E--------------------------------------------------------------------------------------|

E--/15-14-12-/17-15p14----14-15--17-19-19/21-19--21/22-21-24-24b26~---|
B----------------------17---------------------------------------------|
G---------------------------------------------------------------------|
D---------------------------------------------------------------------|
A---------------------------------------------------------------------|
E---------------------------------------------------------------------|

E-24-24b26~-24b26~-22-24-24b26-24=b26-24-24b26~-26r24-22-24~---|
B--------------------------------------------------------------|
G--------------------------------------------------------------|
D--------------------------------------------------------------|
A--------------------------------------------------------------|
E--------------------------------------------------------------|

E-22----------------------------------------------------------------------------------------------|
B----24\22-20-22-22b24--22-20----20\19-20-19----19------------------------------------------------|
G-----------------------------21-------------21----19-------19-------------------------------19-21|
D-----------------------------------------------------19h21----21\19p18p17----19----17-19/21------|
A--------------------------------------------------------------------------19----19---------------|
E-------------------------------------------------------------------------------------------------|

E-------19----------22-24-24b26-24-24b26~~~---------------|
B-20-------20-22/24---------------------------------------|
G----21--------------------------------------(3)/\/\/\/---|
D---------------------------------------------------------|
A---------------------------------------------------------|
E---------------------------------------------------------|

E----------------------------------------|
B----8p-7---------------8p-7-------------|
G----7-(7)--5~-5/7-7----7-(7)--5~--7-7---|
D----7-(7)--5~-5/7-7----7-(7)--5~--7-7---|
A-----------3~-3/5-5-----------3~--5-5---|
E--0------------------0------------------|

                  T    T            T    T
E---------------------------------------------------|
B-10b12r10p8h10--14-12-14-12p10p8--14-12-14-12p10p8-|
G---------------------------------------------------|
D---------------------------------------------------|
A---------------------------------------------------|
E---------------------------------------------------|

   T                     T          T            T          T
E-14-12p10p8\7/8h10h12--14-12p10p8-------------------------------------|
B-----------------------------------14-12p10p8--12/14-8h10—14-12p10p8--|
G----------------------------------------------------------------------|
D----------------------------------------------------------------------|
A----------------------------------------------------------------------|
E----------------------------------------------------------------------|

   T          T        T        T     T     T     T    T    T
E-----------------~~~---------------------------------------------|
B-----------------------------------------------------------------|
G-12/14-11p9--12/14-9--13/14-12-14-11-14-12-14-11-14-9-14-7-14-9--|
D-----------------------------------------------------------------|
A-----------------------------------------------------------------|
E-----------------------------------------------------------------|

  T    T    T    T    T    T    T      T
E-----------------~~~---------------------------------|
B------------------------------------------/7-8-7-5~--|
G-----------------------------------------------------|
D-14-9-14-7-14-5-14-4-14-5-14-7-14-2/4-14-2/4-5-4-2~--|
A-----------------------------------------------------|
E-----------------------------------------------------|

         T     T     T     T     T
E-----------------~~~-------------------|
B-15b17-17-15-17-15-17-15-17-15-17-15\--|
G---------------------------------------|
D---------------------------------------|
A---------------------------------------|
E---------------------------------------|

16.  El Extrano del Pelo Largo

E------------------------------|--------------------------------|------|
B--8---8p7~-----8-----7~-------|o-8---8p7~-----8-----7~--------o|------|
G--7---7--------7-----7~-----7-|--7---7--------7-----7~-----7---|-2~---|
D----0------0-0---0-0----7-9---|----0------0-0---0-0----7-9-----|-2~---|
A------------------------------|o------------------------------o|-0~---|
E------------------------------|--------------------------------|------|


E-----------------------0---3---5--------------------------|
B-8---8p7-----8-----7---0---3---5---7-8-7-8-7--------------|
G-7---7-------7-----7---1---4---6---7-7-7-7-7--[5]\----/---|
D---0-----0-0---0-0-----2---5---7------------------\--/----|
A-----------------------2---5---7-------------------\/-----|
E-----------------------0---3---5--------------------------|

E-----------------------0-----------------------------------------3-2-0-2---|
B-8---8p7-----8-----7---0-------------------------------------3---3---------|
G-7---7-------7-----7---1-------------2---2--0h2p0h2p0h2p0----2---2---------|
D---0-----0-0---0-0-----2---5---4--2--2-2------------------5--0---0---------|
A-----------------------2---3---2--2--0--------------------3----------------|
E-----------------------0----------0----------------------------------------|

E------------5--------------0----------------|
B--------5b7===r5-0---0---3---3--------------|
G-----4---------------1---2------5---2---2---|
D-4---4---------------2---0------5---2-2-2---|
A-4---2---------------2----------3---0---0---|
E-2-------------------0----------------------|


E-----------------------0---3---5--------------------------|
B-8---8p7-----8-----7---0---3---5---7-8-7-8-7--------------|
G-7---7-------7-----7---1---4---6---7-7-7-7-7--[5]\----/---|
D---0-----0-0---0-0-----2---5---7------------------\--/----|
A-----------------------2---5---7-------------------\/-----|
E-----------------------0---3---5--------------------------|

Solo: Wah-Wah

E-------------------------------------------------------------------------------|
B----------13b15~~-b15r13-10----13b15~----10h12h13p10----10h13p10----10h13p10---|
G-[5]/\/---------------------12--------12-------------12----------12------------|
D-------------------------------------------------------------------------------|
A-------------------------------------------------------------------------------|
E-------------------------------------------------------------------------------|

E----------------------------------------------------|
B----10h13p10----10h13p10----------------------------|
G-12----------12----------13-12p11p10----12----10~---|
D-------------------------------------12----12-------|
A----------------------------------------------------|
E----------------------------------------------------|

E-----------------------------13bb15---13---------------------------------|
B-------13-15-15b17r15p13--15------------15-13-----------------------11---|
G-12/14----------------------------------------14-14p13\10--12----10------|
D--------------------------------------------------------------12---------|
A-------------------------------------------------------------------------|
E-------------------------------------------------------------------------|


E----------------------------------------------------------------------|
B-10h-13p12p10----12p10----10------------------------------------------|
G--------------13-------13----13p12p10----12----10\5~~-------------7---|
D--------------------------------------12----12--------7\5-3-5-3/5-----|
A----------------------------------------------------------------------|
E----------------------------------------------------------------------|

E------------------------------20b22--20b22~~--------10-------10-------10-------10---------------|
B-/13--x ?------/20--x ?-----------------------------10-------10-------10----------10-----10--10-|
G-/14-----------/21--------------------------12b14------12b14----12b14----12b14----12b14-b14-b14-|
D------------------------------------------------------------------------------------------------|
A------------------------------------------------------------------------------------------------|
E------------------------------------------------------------------------------------------------|

E------------------------|
B-7--8-------------------|
G-7--7--x-?-11p7p0 x-?---|
D------------------------|
A------------------------|
E------------------------|
Suggest correction
Creating personal tab
Creating personal tab
You can edit any tab online and save it as your Personal.

You can edit, replace or remove any tab part or add personal notes – all changes will be seen only by you.

Personal tabs can be accessed anytime from any device, even offline.
Learn more »
Give kudos to tab author, rate the tab!
1 2 3 4 5
comments
print report bad tab
1 comment total.
0 reply
Birox 97 Sep 23, 2010 09:09 PM

chida tablaturas men
espero con ansias la de guitarras blancas con ansias
sale
salu2

guest
You may want to rate the tab now too:
select rating
Wanna post a correction for this tab? Suggest correction