Oops, an error
Loading. Please wait.

La Muralla Verde Live tab

version 1
version 1

Whole song

Interactive

22,241 views 36 this week
1 commentread comment
1 2 3 4 5
x 4
add to favorites
×
Save as Personal and add changes to this tab that will be seen only by you. Learn more ›
×
You can save this tab as Personal to edit and correct it or add notes. All changes will be seen only by you. Learn more »
launch autoscroll
font size
0
reset
how to read this tab
guitar tuner
backing track
0:00
0:00
edit
Autoscroll
slow
fast
+/-
esc
set tempo
stop
Author
One of the craziest f***ing solos ever!!!!!!!!

Intro:

|-----------------------2---|--------------------------------|
|--------5p4--4-------2---0-|-------5p4-4-----10/11--11\10---|
|--------6p4--4---2h3-------|-------6p4-4--4-----------------|
|---------------------------|-----------------10/11--11\10---|
|--4--4-------2-------------|--4--4-----2--------------------|
|---------------------------|--------------------------------|

|----------------------------|----------------------------------|
|-------5p4--4-----------7-0-|-------5p4----4-----4\2-2---------|
|-------6p4--4---------6-----|-------6p4----4-------------------|
|--------------4-----5-------|-----------------4--4\2-2---1/2---|
|--4--4------2---4/6---------|--4--4-----4--2-------------------|
|----------------------------|----------------------------------|

|----------------------2---|-----------------------------------|
|-------5p4--4-------2---0-|-------5p4--4----10/11-12--11\10---|
|-------6p4--4---2h3-------|-------6p4--4----------------------|
|--------------------------|-----------------10/11-12--11\10---|
|--4--4------2-------------|--4--4------2----------------------|
|--------------------------|-----------------------------------|

|-------------------------------|----------------|
|-------5p4--4-----------7------|-------5p4--4~~-|
|-------6p4--4---------6----6---|-------6p4--4~~-|
|--------------------5--------5-|----------------|
|--4--4------2---4/6------------|--4--4------2~~-|
|-------------------------------|----------------|

                                                                            X3
|------------------------------|------------------11------------------------|
|o----------11b12~-11b12-11~---|-----------11b12~-----11b12r11p9h11--------o|
|-------9----------------------|-------9----------------------------9----9~-|
|--9h11---9--------------------|--9h11---9----------------------------11----|
|o-----------------------------|-------------------------------------------o|
|------------------------------|--------------------------------------------|

|---------------------------------------|---------------11-----------------------------|
|----------11b12~-11-9-11-11b12-11-9-11-|---------11b12~---11b12r11p9h11---------------|
|------9--------------------------------|------9-------------------------9----9/11/\/--|
|-9h11---9------------------------------|-9h11---9-------------------------11----------|
|---------------------------------------|----------------------------------------------|
|---------------------------------------|----------------------------------------------|

C#m                   F#7
Estoy parado sobre la muralla que divide
C#m                  F#7
todo lo que fue y lo que será
  C#m                   F#7
estoy mirando como esas viejas ilusiones
  C#m                     F#7
pasando la muralla se hacen realidad
              D#m7     G#m
Pero como el amor de ayer
              D#m7     G#m
Pero como el amor de ayer

            D#m7 G#m      F#7
volvió a desaparecer, desaparecer

|------------------------------|------------------11-----------------------|
|-----------11b12~-11b12-11~---|-----------11b12~-----12r11p9h11-----------|
|-------9----------------------|-------9-------------------------9----[9]~-|
|--9h11---9--------------------|--9h11---9-------------------------11------|
|------------------------------|-------------------------------------------|
|------------------------------|-------------------------------------------|


|------------------------------|------------------11------------------------------|
|-----------11b12~-11b12-11~---|-----------11b12~-----11b12r11p9h11---------------|
|-------9----------------------|-------9----------------------------9----9/11/\/--|
|--9h11---9--------------------|--9h11---9----------------------------11----------|
|------------------------------|--------------------------------------------------|
|------------------------------|--------------------------------------------------|

C#m                   F#7
Estoy parado sobre la muralla que divide
C#m                   F#7
todo lo que amé de lo que amaré
  C#m                    F#7
eeeestoy mirando como mis heridas se cerraron
  C#m                       F#7
y cómo se desangra un nuevo corazón
              D#m7     G#m
Pero como el amor de ayer    Oy Tijuana!

Pero como el amor de ayer

volvió a desaparecer, desaparecer

SOLO:

E---------------------------------------|
B--------9~~----------------------------|
G--------9~~----------------------------|
D--------9~~---11p9--11b12r11b12r11~~---|
A---------------------------------------|
E--/18\---------------------------------|

E------------------------------9h11----9-12/14-12~-12p11----11------------------|
B—12b14~~--b14r12p9----9-11h12------12-------------------14----12---------------|
G-------------------11--------------------------------------------11h13b14r13~--|
D-------------------------------------------------------------------------------|
A-------------------------------------------------------------------------------|
E-------------------------------------------------------------------------------|


E-------------11-14-12-11----12-11-------11--------------------------------------|
B----------12-------------14-------14-12----14/16--12-14—14b16==b17r14p12--14~~--|
G-------13-----------------------------------------------------------------------|
D-11h14--------------------------------------------------------------------------|
A--------------------------------------------------------------------------------|
E--------------------------------------------------------------------------------|

E---------------------------------------|
B-12----12---------------------12b14~---|
G----13----13p12\9-----11----9----------|
D-------------------11----11------------|
A---------------------------------------|
E---------------------------------------|

E-9-11----9---------11-12-14=p12p11----12\7/-|
B------12---9-12/14-----------------14-------|
G--------------------------------------------|
D--------------------------------------------|
A--------------------------------------------|
E--------------------------------------------|

                 T            T                   T         T
E-/14h16p12h14--17-16p14p12--16/17-16p14p12h--16-17-16---17-16p14p12---|
B------------------------------------------------------0---------------|
G----------------------------------------------------------------------|
D----------------------------------------------------------------------|
A----------------------------------------------------------------------|
E----------------------------------------------------------------------|

       T       T       T       T       T       T
E-------------------------------------------------------|
B-h16-17--16--17--12--17--14--17--16--17--14--17--12~~--|
G-------------------------------------------------------|
D-------------------------------------------------------|
A-------------------------------------------------------|
E-------------------------------------------------------|

         T       T            T        T
E-------17-12h16-17-14p12\11--17-12h16-17-16p14p12---|
B-12h14------------------------------------------------|
G------------------------------------------------------|
D------------------------------------------------------|
A------------------------------------------------------|
E------------------------------------------------------|

       T           T             T      T      T
E------------------------------------------------------|
B-h16-17-16p14p12--16/17-12h16--17-16--17-14--17-12---|
G------------------------------------------------------|
D------------------------------------------------------|
A------------------------------------------------------|
E------------------------------------------------------|

   T    T      T        T     T      T
E----------------------------------------------------------|
B----------------------------------------------------------|
G-17-13-17-12-17-13\9--17-11-17-9p8-17-9p8\6\4h6--/8--9~---|
D----------------------------------------------------------|
A-------------------------------------------------/6--7~---|
E----------------------------------------------------------|

E-----------------------------------|
B-----------------------------------|
G---8--6-8---9--8\6---8-6-6-8-8-9-9---|
D---x--x-x---x--x-x---x-x-x-x-x-x-x---|
A---6--4-6---7--6\4---6-4-4-6-6-7-7---|
E-----------------------------------|

E---------------------------------------------------------------------------------------|
B---------------------------------------------------------------------------------------|
G-/11--11--11--/13---13--13---13-13--13/15--15--15--15/16--16/18--18--18--18-18--18/20--|
D---x---x---x----x----x---x----x--x---x--x---x---x---x--x---x--x---x---x --x--x---x--x--|
A--/9---9---9--/11---11--11---11-11--11/13--13--13--13/14--14/16--16--16--16-16--16/18--|
E---------------------------------------------------------------------------------------|

E-----------------------------------------------------------------------------|
B-----------------------------------------------------------------------------|
G-20--20---20-20--20/21--21--21---21/23---23--23--23----23-----23----23--23---|
D--x---x----x--x---x--x---x---x----x--x----x---x---x-----x------x-----x---x---|
A-18--18---18-18--18/19--19--19---19/21---21--21--21----21-----21----21--21---|
E-----------------------------------------------------------------------------|

E------------------------------------------|
B------------------------------------------|
G-23---23--23--23----23---23--23--23--23---|
D--x----x---x---x-----x----x---x---x---x---|
A-21---21--21--21----21---21--21--21--21---|
E------------------------------------------|

E-------------------------------------------------------------------------------|
B-------------------------------------------------------------------------------|
G-23--23-23----23--23---23-23-23---23--23---23-23----23-23-23-23-23-23-23-23\---|
D--x---x--x-----x---x----x--x--x----x---x----x--x-----x--x--x--x--x--x--x--x----|
A-21--21-21----21--21---21-21-21---21--21---21-21----21-21-21-21-21-21-21-21\---|
E-------------------------------------------------------------------------------|

E--------------------------------|
B-17b19r17--16-17-16-14-16-17~---|
G--------------------------------|
D--------------------------------|
A--------------------------------|
E--------------------------------|

E--------------------14\11--14-12-14/16-12---|
B-17p16p14--14-16h17-------------------------|
G--------------------------------------------|
D--------------------------------------------|
A--------------------------------------------|
E--------------------------------------------|

E----12\11----11-------------------------------------|
B-14-------14----12------------------------12b14~~---|
G-------------------13\11p10p9-----11----9-----------|
D-------------------------------11----11-------------|
A----------------------------------------------------|
E----------------------------------------------------|


E-9-9\7-----7------------------|
B-------9-9----7\5---5-7/9~~---|
G------------------8-----------|
D------------------------------|
A------------------------------|
E------------------------------|


E-------------------------------------------------------------------------------------|
B-7\4h5-7-----------------------------12~--11~--12-14-11~--12-12/14-14~/\--/----------|
G---------6/8~--8\6p4/6wb6wb\1/\--/--------------------------------------\/-----/6~---|
D-------------------------------\/------------------------------------SAME HERE-------|
A-------------------------------------------------------------------------------------|
E-------------------------SLOWLY RAISE BAR--------------------------------------------|


Circus Thing

For this part fret the strings on the guitar with your left hand, muting the strings and 
for
your right hand, simply touch the strings with the whammy bar.

|--FEEDBACK------------------------------------|
|----------------------------------------------|
|-/6~~~~~--8~--9-9/11~--11-11/13-8~/\--/-------|
|------------------------------------\/--------|
|--------------------------------AGAIN HERE----|
|----------------------------------------------|


Estoy parado sobre la muralla que divide

todo lo que fue de lo que será

  C#m                      F#7
estoy mirando como esa vieja sicodelia
  C#m                F#7
estoy fijándome como viene y va
              D#m7     G#m
Pero como el amor de ayer
              D#m7     G#m
Pero como el amor de ayer
            D#m7 G#m      F#7
volvió a desaparecer, desaparecer

Outro:

|--------------------------------|--------------------12----------------------------|
|-------------12b14~-12b14-12~---|-------------12b14~----12b14r12p10h12-------------|
|-------10-----------------------|-------10-----------------------------10----10~---|
|-10h12----10--------------------|-10h12----10-----------------------------12-------|
|--------------------------------|--------------------------------------------------|
|--------------------------------|--------------------------------------------------|

|----------------------------------|-------------------12----------------------------|
|-------------12b14~-12b14-12~-12~-|------------12b14~----12b14r12p10h12-------------|
|-------10-------------------------|-------10----------------------------10----10~---|
|-10h12----10----------------------|-10h12----10----------------------------12-------|
|----------------------------------|-------------------------------------------------|
|----------------------------------|-------------------------------------------------|

|----------------------------------|--------------------14-----------------------------|
|-------------14b15~-14b15-14~-14~-|-------------14b15~-----14b15r14p12h14-------------|
|-------10-------------------------|-------12------------------------------12----12~---|
|-10h12----10----------------------|-12h14----12------------------------------14-------|
|----------------------------------|---------------------------------------------------|
|----------------------------------|---------------------------------------------------|
                                                                     X8
|--------------------------------------------|--------------------14--------|
|-------------14b15~-14-12-14-14b15-14-12-14-|-------------14b15~----14b15~-|
|-------12-----------------------------------|-------12---------------------|
|-12h14----12--------------------------------|-12h14----12------------------|
|--------------------------------------------|------------------------------|
|--------------------------------------------|------------------------------|

Wah on

|-----------------------------|
|----------12---12-11~--------|
|----11-13----13-------13-9~--|
|-11~-------------------------|
|-----------------------------|
|-----------------------------|

|-------------------------------------|
|----------12----12-11~--14-14~-\7~---|
|----11-13----13----------------------|
|-11~---------------------------------|
|-------------------------------------|
|-------------------------------------|


|-------------------------------------------|
|----------12----12-11~--\9-7-9-7h9p7-------|
|----11-13----13----------------------8/9---|
|-11~---------------------------------------|
|-------------------------------------------|
|-------------------------------------------|

|-----------------------------------|
|----------12----12-11~-16-17b19~~--|
|----11-13----13--------------------|
|-11~-------------------------------|
|-----------------------------------|
|-----------------------------------|

Wah off

|------------------------------------------------------------------|
|------------------------------------------------------------------|
|------------------------------------------------------------------|
|---------------------------------11-11--9--9----------------------|
|-11--11-11--11-11-11--11-11-11-0-9--9---7--7--11--11-11--11-11-11-|
|-9---9--9---9--9---9--9--9--9--0--------------9---9--9---9--9---9-|

Muchas Gracias!

            
            
Suggest correction
Creating personal tab
Creating personal tab
You can edit any tab online and save it as your Personal.

You can edit, replace or remove any tab part or add personal notes – all changes will be seen only by you.

Personal tabs can be accessed anytime from any device, even offline.
Learn more »
comments
print report bad tab
1 comment total.
0 reply
jose763 659 Nov 01, 2006 07:20 PM

just wanted to mention that a lot of the words i typed were taken off and it sounds kinda weird when you read it. the little paragraph i typed i mean. also the part where it says to play "3X" on the intro was shifted. i'm not sure why this happens.

guest
You may want to rate the tab now too:
select rating
Wanna post a correction for this tab? Suggest correction