Oops, an error
Loading. Please wait.

Lamento Boliviano Vivo tab

4,659 views 1 this week
1 commentread comment
1 2 3 4 5
x 6
add to favorites
×
Save as Personal and add changes to this tab that will be seen only by you. Learn more ›
×
You can save this tab as Personal to edit and correct it or add notes. All changes will be seen only by you. Learn more »
launch autoscroll
font size
0
reset
how to read this tab
guitar tuner
edit
Autoscroll
slow
fast
+/-
esc
set tempo
stop
Author
em
Me quieren agitar

me incitan a gritar,
   bm
soy como una roca,

palabras no me tocan
   am
adentro hay un volcan

que pronto va a estallar
em                  B7
yo quiero estar tranquilo

 Em
Es mi situacion

una desolacion
 Bm
soy como un lamento,

lamento boliviano
       Am
Que un dia empezo

y no va a terminar
Em             B7
ya nadie hace daño

             Em
Y yo estoy aquí
            Bm
borracho y loco
          A#m-Am
y mi corazon idiota
             Em     B7
siempre brillará

           Em
Y yo te amaré
               Bm
te amare por siempre
            A#m - Am
nena no te peines en la cama
             Em
que los viajantes
             B7
se van a atrasar

solo:

E------------------------------------------------|
B------7-8-7----------7-8~-7---------------------|
G----9-------9-------7-------9-7-9/11\9----------|
D-/9-----------9~---9--------------------7/9\7---|
A------------------------------------------------|
E------------------------------------------------|

E-------------12---------------------------------------------------------|
B----------12----15b17r15p12---------------------------------------------|
G-14b16r14-------------------14b16r14p12--14=b16r14p13p12----14----12~---|
D---------------------------------------------------------14----14-------|
A------------------------------------------------------------------------|
E------------------------------------------------------------------------|

E-----------------------------|
B----------------------12~~---|
G-/11--12-14-/11-12-14--------|
D-----------------------------|
A-----------------------------|
E-----------------------------|

E----------12-------12----15----12-------------------------------------15-17-15h17~---|
B-------12----12-15----12----12----12----------------------------15-17----------------|
G-14b16-------------------------------14b16r14p12-14----12-14/16----------------------|
D----------------------------------------------------14-------------------------------|
A-------------------------------------------------------------------------------------|
E-------------------------------------------------------------------------------------|

E-17p15-17-17/19--15-17--------|
B-----------------------17~~---|
G------------------------------|
D------------------------------|
A------------------------------|
E------------------------------|

E----15-17-18-19-18-17--15-17-18-19-18-17--15-17-17b19r17p15-17---|
B-17--------------------------------------------------------------|
G-----------------------------------------------------------------|
D-----------------------------------------------------------------|
A-----------------------------------------------------------------|
E-----------------------------------------------------------------|

E-15\14------------------------------------------------[12]~~---|
B-------15-------------15\12---------------------------[12]~~---|
G----------14\11-12-----------14p12--14b16r14p12-------[12]~~---|
D-------------------12-----------------------------12-----------|
A---------------------------------------------------------------|
E---------------------------------------------------------------|



             Em
Y yo estoy aquí
             Bm
borracho y loco
          A#m-Am
y mi corazon idiota
             Em     B7
siempre brillará

           Em
Y yo te amaré
               Bm
te amare por siempre
            A#m - Am
nena no te peines en la cama
             Em
que los viajantes
             B7
se van a atrasar


             Em
Y yo estoy aquí
             Bm
borracho y loco
          A#m-Am
y mi corazon idiota
             Em     B7
siempre brillará


           Em
Y yo te amaré
               Bm
te amare por siempre
            A#m - Am
nena no te peines en la cama
             Em
que los viajantes
             B7
se van a atrasar

OUTRO:

E----------------------------------------------------|
B-8p7--------------------8p7-------------------------|
G-----9p7-9~---9---9-7~------9p7-9~-----9---9-7~-----|
D------------9---9------------------7-9---9----------|
A----------------------------------------------------|
E----------------------------------------------------|

E--------------------------------------------------|
B-------8-----------10------8p7--------------------|
G-----7---9~------9----11~------9-7-9~-----7h9-7---|
D-7h9--------9h11----------------------7-9---------|
A--------------------------------------------------|
E--------------------------------------------------|

E----------------------------------------------------|
B----------------8p-7---------------8p-7-------------|
G-5~--5-5/7-7----7-(7)--5~-5-7-7----7-(7)--5~--7-7---|
D-5~--5-5/7-7----7-(7)--5~-5-7-7----7-(7)--5~--7-7---|
A-3~--3-3/5-5-----------3~-3-5-5-----------3~--5-5---|
E-------------0------------------0-------------------|

E------------------------------------------|
B------------------------------------------|
G--------11-12-12/14~--12-11~--11\7-9-9~---|
D-----14-----------------------------------|
A-/14--------------------------------------|
E------------------------------------------|

E----------------------------------------|
B----------------------------------------|
G--------11-12-12/14~--12-11-12/16-16~~--|
D-----14---------------------------------|
A-/14------------------------------------|
E----------------------------------------|

E---------------------------------------------------------------------------|
B--------------------------------------12~-12\------------------12-10-8\7---|
G--------11-12-14~-14\--------11-12-14-----------------11-12-14-------------|
D-----14-------------------14-----------------------14----------------------|
A-/14------------------/14----------------------/14-------------------------|
E---------------------------------------------------------------------------|

E------------------------------------------------------------|
B-9/10-8-7---/7-7---/7-7---/7-7---/7-7---7-8-10-/7-----------|
G----------9------9------9------9------9-----------7---------|
D----------------------------------------------------9~-9~---|
A------------------------------------------------------------|
E------------------------------------------------------------|

E----------------------7-10-8-7----8-7------7-------------|
B---------7h8---7h8h10----------10-----10-8---10/11b12~---|
G---6-7-9-----9-------------------------------------------|
D-9-------------------------------------------------------|
A---------------------------------------------------------|
E---------------------------------------------------------|

E-7---------------------------------------------|
B---10-8-7-8-10-10/12~-12\10-8-8--7-8-10-8-7~---|
G-----------------------------------------------|
D-----------------------------------------------|
A-----------------------------------------------|
E-----------------------------------------------|

E----------------------------------------------------|
B-5-3-5/7~-3---------------------3-5-7~---10-10-10---|
G------------2--0-2b3r2p0----2/4--------9------------|
D-------------------------2~-------------------------|
A----------------------------------------------------|
E----------------------------------------------------|

E-----12-15p12-14p12-15p12-17p12-15p12-14p12-15p12-17p12-15p12-14p12-15p12-17p12-15p12-14p12---|
B-/15------------------------------------------------------------------------------------------|
G----------------------------------------------------------------------------------------------|
D----------------------------------------------------------------------------------------------|
A----------------------------------------------------------------------------------------------|
E----------------------------------------------------------------------------------------------|

E-15p12-17p12-15p12-14p12-15p12-17p12-15p12---|
B---------------------------------------------|
G---------------------------------------------|
D---------------------------------------------|
A---------------------------------------------|
E---------------------------------------------|

E---------------------------------------------------------------------------------------------|
B-15p12-15p12-17p12-15p12-17p12-15p12-17p12-15p12-17p12-15p12-17p12-15p12-17p12-15p12----12---|
G-------------------------------------------------------------------------------------15------|
D---------------------------------------------------------------------------------------------|
A---------------------------------------------------------------------------------------------|
E---------------------------------------------------------------------------------------------|

E---------------------------------------------------------------------------------------------------|
B---------------------------------------------------------------------------------------------------|
G-15p14p12----12-15p14p12----12-15p12----12-15-12----12-15p14p12----12-15p14p12----12-15p14p12------|
D----------14-------------14----------14----------15-------------15-------------15--------------15--|
A---------------------------------------------------------------------------------------------------|
E---------------------------------------------------------------------------------------------------|

E-----------------------------------------------------------------------|
B-----------------------------------------------------------------------|
G-12-15p14p12-----12-15p14p12--------------------------------------12---|
D-------------15--------------15--12-------------------------12h14------|
A------------------------------------14\13\12p10----10-12/14------------|
E------------------------------------------------12---------------------|


E----------------------------15-17=b19r17p15----17----15-17-18-19-18-17-15-------|
B-------15-17-17b19r17p15--------------------17----17----------------------17~---|
G-14/16-------------------16-----------------------------------------------------|
D--------------------------------------------------------------------------------|
A--------------------------------------------------------------------------------|
E--------------------------------------------------------------------------------|

E-----------------15~----------15~----------15~----------15~----------15~----------15~---|
B-----15-17p15--------17p15--------17p15--------17p15--------17p15--------17p15----------|
G-/16----------16-----------16-----------16-----------16-----------16-----------16-------|
D----------------------------------------------------------------------------------------|
A----------------------------------------------------------------------------------------|
E----------------------------------------------------------------------------------------|

E----------15~---|
B-17p15----------|
G-------16-------|
D----------------|
A----------------|
E----------------|

E-15\14----14----14~----14-15-16-15-17--17-16-15--14----14------------------------------|
B-------17----17-----17------------------------------17-----15--------------------------|
G--------------------------------------------------------------16\14p13p12----14----12--|
D--------------------------------------------------------------------------14----14-----|
A---------------------------------------------------------------------------------------|
E---------------------------------------------------------------------------------------|

E--------12----12\10--------10-------10-------10---------10-----9s10------|
B-15b17~----15--------12h14----12h14----12h14----12h14------14-------14---|
G-------------------------------------------------------------------------|
D-------------------------------------------------------------------------|
A-------------------------------------------------------------------------|
E-------------------------------------------------------------------------|

E-10----------------------10--------------------------------------10----10-12------|
B----14p12p10----10h12h14----14--10----------------------10h12h14----14-------14---|
G-------------14---------------------14-14p12p11\9h11h12---------------------------|
D----------------------------------------------------------------------------------|
A----------------------------------------------------------------------------------|
E----------------------------------------------------------------------------------|

E--/15-14-12-/17-15p14----14-15--17-19-19/21-19--21/22-21-24-24b26~---|
B----------------------17---------------------------------------------|
G---------------------------------------------------------------------|
D---------------------------------------------------------------------|
A---------------------------------------------------------------------|
E---------------------------------------------------------------------|

E-24-24b26~-24b26~-22-24-24b26-24=b26-24-24b26~-26r24-22-24~---|
B--------------------------------------------------------------|
G--------------------------------------------------------------|
D--------------------------------------------------------------|
A--------------------------------------------------------------|
E--------------------------------------------------------------|

E-22------------------------------------------------------------------------------------------------|
B----24\22-20-22-22b24--22p20----20\19-20-19----19--------------------------------------------------|
G-----------------------------21-------------21----19-------19-------------------------------19-21--|
D-----------------------------------------------------19h21----21\20\19p17----19----17-19/21--------|
A--------------------------------------------------------------------------19----19-----------------|
E---------------------------------------------------------------------------------------------------|

E-------19----------22-24-24b26-24-24b26~~~---------------|
B-20-------20-22/24---------------------------------------|
G----21--------------------------------------(3)/\/\/\/---|
D---------------------------------------------------------|
A---------------------------------------------------------|
E---------------------------------------------------------|


                  T    T            T    T
E-----------------~~~-------------------------------|
B-10b12r10p8h10--14-12-14-12p10p8--14-12-14-12p10p8-|
G---------------------------------------------------|
D---------------------------------------------------|
A---------------------------------------------------|
E---------------------------------------------------|

   T                     T          T            T          T
E-14-12p10p8\7/8h10h12--14-12p10p8-------------------------------------|
B-----------------------------------14-12p10p8--12/14-8h10—14-12p10p8--|
G----------------------------------------------------------------------|
D----------------------------------------------------------------------|
A----------------------------------------------------------------------|
E----------------------------------------------------------------------|

   T          T        T        T     T     T     T    T    T
E-----------------~~~---------------------------------------------|
B-----------------------------------------------------------------|
G-12/14-11p9--12/14-9--13/14-12-14-11-14-12-14-11-14-9-14-7-14-9--|
D-----------------------------------------------------------------|
A-----------------------------------------------------------------|
E-----------------------------------------------------------------|

  T    T    T    T    T    T    T      T
E-----------------~~~---------------------------------|
B------------------------------------------/7-8-7-5~--|
G-----------------------------------------------------|
D-14-9-14-7-14-5-14-4-14-5-14-7-14-2/4-14-2/4-5-4-2~--|
A-----------------------------------------------------|
E-----------------------------------------------------|

         T     T     T     T     T
E-----------------~~~-------------------|
B-15b17-17-15-17-15-17-15-17-15-17-15\--|
G---------------------------------------|
D---------------------------------------|
A---------------------------------------|
E---------------------------------------|

            
            
Suggest correction
Creating personal tab
Creating personal tab
You can edit any tab online and save it as your Personal.

You can edit, replace or remove any tab part or add personal notes – all changes will be seen only by you.

Personal tabs can be accessed anytime from any device, even offline.
Learn more »
comments
print report bad tab
1 comment total.
+1 reply
cmpunk14 61 Dec 04, 2011 06:06 PM

Gracias brother!!
:D muy buena esta rola en vivo la he estado buscando desde hace anios gracias en verdad hermano :)

no podrias sacar la de:

RATON PEREZ - MI VIDA REFLEJADA EN LA SOMBRA DEL SILENCIO

esa tambien la he estado buscando y nada :/ no esta la TAB
please brother!

guest
You may want to rate the tab now too:
select rating
Wanna post a correction for this tab? Suggest correction