Oops, an error
Loading. Please wait.

Luz De Dia Tab

version 1
version 1

Whole song

Interactive

40,387 views 51 this week
no commentswrite comment
1 2 3 4 5
excellent!
x 3
add to favorites
launch autoscroll
font size
0
reset
how to read this tab
guitar tuner
Autoscroll
slow
fast
+/-
esc
set tempo
stop
Help us to improve Ultimate-Guitar.com Take our survey!
×
Difficulty
novice
this song is pretty easy, it has some figures but nothing out of ths world. just
practice a little bit and you get it right. jope you enjoy it.

Intro:                                     strum this
|----|------|--------|-----|---------------|-----1--|--------------|---------|
|-1--|------|-3-1-1-0|-----|----0-1--------|----1---|--0-3-1--1-1-1|-1-0-----|
|-2--|------|-4-2-0-0|-----|-0-2----2-2-0-2|---2----|--------------|-----2-0-|
|----|------|--------|--0--|------0--------|--3-----|--------------|---------|
|-0--|-2h3-0|--------|---2-|---------------|--------|------3-------|---------|
|---0|------|-----3--|-----|---------------|--------|--------------|-3-------|

verse:
               Am             G
Destapa el champán apaga las luces
               Dm        F        C          G
dejemos las velas encendidas y afuera las heridas
               Am              G
ya no pienses mas en nuestro pasado
             Dm              F           C            G
hagamos que choquen nuestras copas por habernos encontrado

[after the word "pasado" you can do this:]

|----3------|
|-3h5--5-3--|
|---------4~|
|-----------|
|-----------|
|-----------|

Chorus:
          C              G+B             Am
Y porque puedo mirar al cielo, besar tus manos,
            F               C
sentir tu cuerpo, decir tu nombre
        G+B              Am
y las caricias seran la brisa
              F                 C   G+B Am F
que aviva el fuego de nuestro amor...
  C               G+B             Am
puedo ser luz de noche ser luz de dia
           F              C
frenar al mundo por un segundo
        G+B               Am
y las caricias seran la brisa
              F                 C  G+B Am F
que aviva el fuego de nuestro amor...

|--------|-10-12-10--8-10-12-10--9/10--8|
|--8/10~-|-12-13-12-10-12-13-12-11/12-10|
|--------|------------------------------|
|--------|------------------------------|
|--------|------------------------------|
|--------|------------------------------|

solo:

|-3---5-3---------|----------------|---5-------|
|---5-----5-3~----|----------------|--5---8/10~|
|-------------5-5~|----5-7---7b9r7~|-7---------|
|-----------------|-5/7------------|-----------|
|-----------------|----------------|-----------|
|-----------------|----------------|-----------|

|-10-12-10--8-10-12-10--9/10--8|-7h8-7-------------|
|-12-13-12-10-12-13-12-11/12-10|------8------------|
|------------------------------|-------7\5---7b9r7~|
|------------------------------|-------------------|
|------------------------------|-------------------|
|------------------------------|-------------------|

verse 2:
           Am                  G
el tiempo dejo su huella imborrable
                   Dm          F            C          G
y aunque nuestras vidas son distintas esta noche todo vale
              Am [strum once and play this]
tu piel y mi piel
|-----3---------|
|-3/5---5\3--1--|
|-------------2~|
|---------------|
|---------------|
|---------------|

                G [ strum once and play this]
ves que se roconocen
|-3-5-5/7--5-3-3|
|---------------| [let the ring]
|-4-5-5/7--5-4-4|
|---------------|
|---------------|
|---------------|
         Dm        F       C           G
es la memoria que hay en nuestros corazones

Chorus: same seguence as the first chorus

 C      G+B    Am    F      C
sin tu amor no se vivir porque
         G+B         Am      F
sin tu amor yo me voy a morir de pensa.


well thats all im 100% this accurate hope you agree and have fun with this 
sing..really beautiful song.
Suggest correction
Give kudos to tab author, rate the tab!
1 2 3 4 5
comments
print report bad tab
guest
You may want to rate the tab now too:
select rating
Please do not post tabs as comments. Select "correction" instead!