Oops, an error
Loading. Please wait.

Te Vi En Un Tren Chords

94 views 3 this week
no commentswrite comment
1 2 3 4 5
3 more votes to show rating
add to favorites
launch autoscroll
font size
0
reset
transpose
0
reset
simplify chords
display chords
guitar tuner
×
Best way to learn
"Te Vi En Un Tren"
Autoscroll
slow
fast
+/-
esc
set tempo
stop
Author
Difficulty
  follow
intermediate
About this tab version
This version has both the guitar solo and the chords to the song. Was this info helpful? Yes No
Enanitos Verdes - Te Vi En Un Tren

[Intro]
    G               Cadd9
E|-------10---8-7-------------|
B|-8---8----------8-10--8~----|
G|---7------------------------|
D|----------------------------|
A|----------------------------|
E|----------------------------| (2x)

[Estrofa]
         Em        Bm         C       G  
    Yo te vi en un tren preocupada de mas.
             A7                    D7 
    quise ayudarte y ya no estabas más.

         Em        Bm               C         G  
    Me colgué del vagón que ya empezaba a correr
             A7                   D7 
    entusiasmado como la primera vez.

[Coro]
                      Em  A7                     Em  C 
    Y al fin te encontré.     y al fin te encontré,
          A7                    D      
    y no pude ni siquiera decir hola.

[Intro]
    G               Cadd9
E|-------10---8-7-------------|
B|-8---8----------8-10--8~----|
G|---7------------------------|
D|----------------------------|
A|----------------------------|
E|----------------------------|

[Estrofa]
        Em        Bm        C         G  
    Intente conversar preguntarte la edad
               A7                               D7 
    como te llamabas en que estación pensabas bajar
         Em         Bm         C          G  
    y no supe que decir me engañaba al hablar
         A7                  D7 
    alucinado sin ninguna razón.

[Coro]
                       Em  A7                  Em  C 
    y yo te vi en un tren     yo te vi en un tren
         A7                     D      
    y no pude ni siquiera decir hola.

[Solo 1]
   Em         A          Em           C 
E|------------------------------------------|
B|-8---8---8--8---8---8--8---8---8---8--8~--|
G|---7---7------9---9------7---7---7--------|
D|------------------------------------------|
A|------------------------------------------|
E|------------------------------------------|

   D     Em           A            Em        C   D 
E|-----------------------------------------------------|
B|-------8----8----8--8---8---8--8----8----8--8~-7~----|
G|-9-11~---10---10------9---9------10---10----------9~-|
D|-----------------------------------------------------|
A|-----------------------------------------------------|
E|-----------------------------------------------------|

[Estrofa]
        Em          Bm        C       G  
    Yo te vi en un tren preocupada de mas.
             A7                    D7 
    quise ayudarte y ya no estabas más.

        Em        Bm        C         G  
    Intente conversar preguntarte la edad
               A7                              D7 
    como te llamabas en que estación pensabas bajar

         Em         Bm         C          G  
    y no supe que decir me engañaba al hablar
         A7                  D7 
    alucinado sin ninguna razón.

[Coro]
                       Em  A7                  Em  C 
    y yo te vi en un tren     yo te vi en un tren
         A7                      D 
    y no pude ni siquiera decir hola.

[Solo 2]
    G               C 
E|-------10---8-7-------------|
B|-8---8----------8-10--8~----|
G|---7------------------------|
D|----------------------------|
A|----------------------------|
E|----------------------------|

             G                 C 
E|-------------------------------------|
B|-----------15~~--13-12---------------|
G|--12----12-------------12-12h14~-12~~|
D|-----12------------------------------|
A|-------------------------------------|
E|-------------------------------------|

            A                    C 
E|--------------------------------------------------|
B|--------------------------------------------------|
G|--12----12-14~--12-12-12-14-16-17-12~~---12----12-|
D|-----12-------------------------------------12----|
A|--------------------------------------------------|
E|--------------------------------------------------|

[FINAL]
      Em                   A 
    yo te vi en un tren, yo te vi en un tr-é-en.    (4x)
E|--------------9----9-10~-----9-10~----9-10-10~~---X-0~~----|
B|--10---10-10~---10--------10-------10-------------X-2~~----|
G|-----9--------------------------------------------3-2~~----|
D|--------------------------------------------------2-2~~----|
A|--------------------------------------------------2-0~~----|
E|--------------------------------------------------x-x------|

************************************

| ~  Vibrato
| h  Hammer-on
| x  Dead note

************************************
Suggest correction
Give kudos to tab author, rate the tab!
1 2 3 4 5
comments
print report bad tab
guest
You may want to rate the tab now too:
select rating
Wanna post a correction for this tab? Suggest correction