Oops, an error
Loading. Please wait.

Audrey Kishline Bass Tab

171 views 6 this week
no commentswrite comment
1 2 3 4 5
please rate
add to favorites
launch autoscroll
font size
0
reset
guitar tuner
Autoscroll
slow
fast
+/-
esc
set tempo
stop
Help us to improve Ultimate-Guitar.com Take our survey!
×
Author
Difficulty
G|------------------------------------------|
D|-0---------0---------0----------0---------|
A|-----2---2-----2---2------2---2-----2---2-| x2
E|------------------------------------------|

G|---------------------------------------------|
D|-0-0h2-------0-0h2-------0-0h2-------0-0h2---|
A|-------2---2-------2---2-------2---2-------2-| 
E|---------------------------------------------|

G|---------------------------------|
D|-----------------------------5-4-|
A|-------------5---2-2-2-2-2-2-----| x3
E|-3-3-3-3-3-3---5-----------------|

G|-----------------------------|
D|-----4-------------------5---|
A|---2---4-0---2-2-2-2-2-2---5-| 
E|-3---------2-----------------|

G|--------------------------------------------------|
D|-0--2--4------------------0--2--4--2-4------------|
A|---------------------------------------2--2-2-5-2-|
E|----------3-3-3-3-3-3-3-3-------------------------|

G|--------------------------------------------------|
D|-0--2--4------------------------------------------|
A|----------------------------2-5-2-----2-----------|
E|----------3-3-3-3-3-3-3-3-3-------3-0-------------|

G|------------------------------------------|
D|-0---------0---------0----------0---------|
A|-----2---2-----2---2------2---2-----2---2-| 
E|------------------------------------------|

G|---------------------------------------------|
D|-0-0h2-------0-0h2-------0-0h2-------0-0h2---|
A|-------2---2-------2---2-------2---2-------2-| 
E|---------------------------------------------|

G|---------------------------------|
D|-----------------------------5-4-|
A|-------------5---2-2-2-2-2-2-----| x3
E|-3-3-3-3-3-3---5-----------------|

G|-----------------------------|
D|-----4-------------------5---|
A|---2---4-0---2-2-2-2-2-2---5-| 
E|-3---------2-----------------|

G|--------------------------------------------------|
D|-0--2--4------------------0--2--4--2-4------------|
A|---------------------------------------2--2-2-5-2-|
E|----------3-3-3-3-3-3-3-3-------------------------|

G|--------------------------------------------------|
D|-0--2--4------------------------------------------|
A|----------------------------2-5-2-----2-----------|
E|----------3-3-3-3-3-3-3-3-3-------3-0-------------|

G|-------------------|
D|-------------------|
A|-2 x32-------------| x2
E|-------3 x16-0 x16-|

G|--------------------------------------------------------------------|
D|--------------------------------------------------------------------|
A|-22222222222222222222222222222222-----------------------------------| x2
E|----------------------------------3333333333333333-0000000000000000-|

G|-----------------------------------------------------------------------|
D|--------------------------------------------------------------------2--|
A|-2222222222222222------------------5555555555555555-/7-0000000000000-0-| x2
E|------------------3333333333333333-------------------------------------|

G|---------------------------------|
D|-----------------------------5-4-|
A|-------------5---2-2-2-2-2-2-----| x3
E|-3-3-3-3-3-3---5-----------------|

G|-----------------------------|
D|-----4-----------------------|
A|---2---4-0---2---------------| 
E|-3---------2-----------------|
Suggest correction
What's this?
You can suggest a correction to this tab. Community and Mods will review your correction and vote to approve or reject it.
comments
We did not receive enough feedback on this tab! Please rate:
print report bad tab
1 2 3 4 5
guest
You may want to rate the tab now too:
select rating
Please do not post tabs as comments. Select "correction" instead!