Oops, an error
Loading. Please wait.

Eric Hall Acoustic tab

61 views 1 this week
no commentswrite comment
1 2 3 4 5
3 more votes to show rating
add to favorites
×
Save as Personal and add changes to this tab that will be seen only by you. Learn more ›
×
You can save this tab as Personal to edit and correct it or add notes. All changes will be seen only by you. Learn more »
launch autoscroll
font size
0
reset
how to read this tab
guitar tuner
edit
Autoscroll
slow
fast
+/-
esc
set tempo
stop
Tuning: Half-step down.

[Intro] 
(x3)
eb|----------------------------------------------------|
Bb|----------------------------------------------------|
Gb|----4-4-p2-p0----2---2-2---2p0----------------------|
Db|----2-2(2)(0)----0---0-0---0(0)---------------------|
Ab|-0--0-0(2)(0)----0---0-0---0(0)---------------------|
Eb|---------------3------------------------------------|

(x1)
eb|----------------------------------------------------|
Bb|----------------------------------------------------|
Gb|----4-4-p2(2)-4-4-4-p2(2)---------------------------|
Db|----2-2(2)-0--2-2-2(0)-0----------------------------|
Ab|-0--0-0(0)-0--0-0-0(0)-0----------------------------|
Eb|----------------------------------------------------|

[Verse]
(x3)  
eb|----------------------------------------------------|
Bb|----------------------------------------------------|
Gb|----4-4-p2-p0----2---2-2---2p0----------------------|
Db|----2-2(2)(0)----0---0-0---0(0)---------------------|
Ab|-0--0-0(2)(0)----0---0-0---0(0)---------------------|
Eb|---------------3------------------------------------|

(x1)
eb|----------------------------------------------------|
Bb|----------------------------------------------------|
Gb|----4-4-p2(2)-4-4-4-p2(2)---------------------------|
Db|----2-2(2)-0--2-2-2(2)-2----------------------------|
Ab|-0--0-0(0)-0--0-0-0(0)-0----------------------------|
Eb|----------------------------------------------------|

"Give me a call when your marriage dissolves. 
Dial my phone when the family stalls.
Reach out for me when you've nothing at all.
I'll be reaching right back with razor-sharp claws."

[Chorus]
eb|-3~----------------------------------------------------------|
Bb|-0~-------3-3---3~-------------------------------------------|
Gb|-0~-------0-0---2~-------------------4-4-p2(2)-4-4-4-p2(2)---|
Db|-0~-------0-0-0-0~--------0-0-0~-----2-2(2)-0--2-2-2(2)-2----|
Ab|-2~-------2-2-0-x~--------x-x-0~--0--0-0(0)-0--0-0-0(0)-0----|
Eb|-3~-------3-3-0-2~--------2-2-0~-----------------------------|

eb|-3~-------------------------------|
Bb|-0~-------3-3---3~----------------|
Gb|-0~-------0-0---2~----------------| (After this go straight into the verse)
Db|-0~-------0-0-0-0~--------0-0-0~--|
Ab|-2~-------2-2-0-x~--------x-x-0~--|
Eb|-3~-------3-3-0-2~--------2-2-0~--|

"Some things you can't plan."

[Verse 2] (x2)
(x3)  
eb|----------------------------------------------------|
Bb|----------------------------------------------------|
Gb|----4-4-p2-p0----2---2-2---2p0----------------------|
Db|----2-2(2)(0)----0---0-0---0(0)---------------------|
Ab|-0--0-0(2)(0)----0---0-0---0(0)---------------------|
Eb|---------------3------------------------------------|

(x1)
eb|----------------------------------------------------|
Bb|----------------------------------------------------|
Gb|----4-4-p2(2)-4-4-4-p2(2)---------------------------|
Db|----2-2(2)-0--2-2-2(2)-2----------------------------|
Ab|-0--0-0(0)-0--0-0-0(0)-0----------------------------|
Eb|----------------------------------------------------|

"Now attached to your head. 
Brought along my drill bit.
A small hole placed in your skin: 
brains spill across your desk."

[Chorus 2]
eb|-3~----------------------------------------------------------|
Bb|-0~-------3-3---3~-------------------------------------------|
Gb|-0~-------0-0---2~-------------------4-4-p2(2)-4-4-4-p2(2)---|
Db|-0~-------0-0-0-0~--------0-0-0~-----2-2(2)-0--2-2-2(2)-2----|
Ab|-2~-------2-2-0-x~--------x-x-0~--0--0-0(0)-0--0-0-0(0)-0----|
Eb|-3~-------3-3-0-2~--------2-2-0~-----------------------------|

eb|-3~-------------------------------|
Bb|-0~-------3-3---3~----------------|
Gb|-0~-------0-0---2~----------------| (After this go straight into the verse again)
Db|-0~-------0-0-0-0~--------0-0-0~--|
Ab|-2~-------2-2-0-x~--------x-x-0~--|
Eb|-3~-------3-3-0-2~--------2-2-0~--|

"Some things you can't plan."

[Verse] (x2)
(x3)
eb|----------------------------------------------------|
Bb|----------------------------------------------------|
Gb|----4-4-p2-p0----2---2-2---2p0----------------------|
Db|----2-2(2)(0)----0---0-0---0(0)---------------------|
Ab|-0--0-0(2)(0)----0---0-0---0(0)---------------------|
Eb|---------------3------------------------------------|

(x1)
eb|----------------------------------------------------|
Bb|----------------------------------------------------|
Gb|----4-4-p2(2)-4-4-4-p2(2)---------------------------|
Db|----2-2(2)-0--2-2-2(2)-2----------------------------|
Ab|-0--0-0(0)-0--0-0-0(0)-0----------------------------|
Eb|----------------------------------------------------|

Play this all TWICE

"Lips abutting your heels. 
Honestly honored to be here, 
in the presences of my fear: 
Woman carrying life shared."



************************************

| b    Bend
| p    Pull-off
| (n)  Ghost note
| ~    Vibrato
| x    Dead note
 

************************************
Suggest correction
Creating personal tab
Creating personal tab
You can edit any tab online and save it as your Personal.

You can edit, replace or remove any tab part or add personal notes – all changes will be seen only by you.

Personal tabs can be accessed anytime from any device, even offline.
Learn more »
Give kudos to tab author, rate the tab!
1 2 3 4 5
comments
print report bad tab
guest
You may want to rate the tab now too:
select rating
Wanna post a correction for this tab? Suggest correction