Oops, an error
Loading. Please wait.

O Yeh Bass Tab

353 views 1 this week
1 commentread comment
1 2 3 4 5
2 more votes to show rating
add to favorites
launch autoscroll
font size
0
reset
guitar tuner
Autoscroll
slow
fast
+/-
esc
set tempo
stop
Help us to improve Ultimate-Guitar.com Take our survey!
×
Author
Difficulty
intermediate
Intro
e:-9h10/11h9------------------------------|
a:----------------------------------------|
d:----------------------------------------|
g:----------------------------------------|

Verse1:    x3
e:-00000-9999h10/11h9-44444-22222---------|
a:----------------------------------------|
d:----------------------------------------|
g:----------------------------------------|

Chorus:   x4
e:-0-0-0-0---9-9-9-9---4-4-4-4---2-2-2-2--|
a:----------------------------------------|
d:----------------------------------------|
g:----------------------------------------|

verse2:
e:-00000-9999h10/11h9-44444-22222---------|    x2
a:----------------------------------------|
d:----------------------------------------|
g:----------------------------------------|

e:-00000-9999h10/11h9---------------------|
a:----------------------------------------|
d:----------------------------------------|
g:----------------------------------------|

Chorus:  x4


sweet candy
e:-5-5-5--5-5-5-53--0-0-0---0-0-0-0-0------|
a:-----------------------------------------|
d:-----------------------------------------|
g:-----------------------------------------|

just give me some sweet candy
e:-5-5-5---5-5-5-53--0-0-0---0-03/7---------|
a:------------------------------------------|
d:------------------------------------------|
g:------------------------------------------|

you make me feel oh baby
e:5-5-5---5-5-5-53--0-0-0---0-0-0-0-0---------|
a:--------------------------------------------|
d:--------------------------------------------|
g:--------------------------------------------|

Chorus
e:0-0-0-0---9-9-9-9---4-4-4-4---2-2-2-2------|
a:-------------------------------------------|
d:-------------------------------------------|
g:-------------------------------------------|

e:-0-0-0-0---9-9-9-9---4-4-4-4---22222-------|
a:-------------------------------------------|
d:-------------------------------------------|
g:-------------------------------------------|

e:-0-0-0-0---9-9-9-9---4-4-4-4---2-2-2-2-----| x2
a:-------------------------------------------|
d:-------------------------------------------|
g:-------------------------------------------|

Bass solo/outro
e:-9h10/11h9--000003/9999h10/11h94444422222----|
a:---------------------------------------------|
d:---------------------------------------------|   play till end of song
g:---------------------------------------------|

e:-000003/9999h10/11h94444422222---------------|
a:---------------------------------------------|
d:---------------------------------------------|
g:---------------------------------------------|
Suggest correction
Give kudos to tab author, rate the tab!
1 2 3 4 5
comments
print report bad tab
1 comment total.
0 reply
mik_skoo 10 Mar 30, 2006 03:43 AM

Stano you are a pro i luv your work man call me

guest
You may want to rate the tab now too:
select rating
Wanna post a correction for this tab? Suggest correction