Oops, an error
Loading. Please wait.

Too Careful Tab

369 views 1 this week
1 commentread comment
1 2 3 4 5
excellent!
x 1
add to favorites
launch autoscroll
font size
0
reset
how to read this tab
guitar tuner
Tab Pro tools
  • play this tab
  • loop segment
  • change instrument
  • show fretboard
  • metronome
Autoscroll
slow
fast
+/-
esc
set tempo
stop
Difficulty
intermediate
 E   F#  G#   A  Am   B   C#   D
e -0- -2- -4-  -5- -5- -2-  -4- -5-
b -0- -2- -4-  -5- -5- -4-  -6- -7-
g -1- -3- -5-  -6- -5- -4-  -6- -7-
d -2- -4- -6-  -7- -7- -4-  -6- -7-
a -2- -4- -6-  -7- -7- -2-  -4- -5-
e -0- -2- -5-  -5- -5- -x-  -x- -x-


Figure 1.

   E                C               A
e-------------------------------------------------|
b-------------------------------------------------|
g--9-9-9-9-9-9-9-9-9-9-9-9-9-9-9-9-6-6-6-6-6-6-6--|
d-------------------------------------------------|
a--7-7-7-7-7-7-7-7--------------------------------|
e--0-0-0-0-0-0-0-0-8-8-8-8-8-8-8-8-5-5-5-5-5-5-5--|

Figure 2.

    E               C                   D
e------------------------------------------------------|
b------------------------------------------------------|
g--9-9-9-9-9-9-9-9-9-9-9-9-9-9-9-9--r--12-11-11-11-11--|
d-----------------------------------e------------------|
a--7-7-7-7-7-7-7-7------------------s------------------|
e--0-0-0-0-0-0-0-0-8-8-8-8-8-8-8-8--t--10-10-10-10-10--|

Figure 3.

    E               C                   A ("Oh yeah")
e--------------------------------------------------|
b--------------------------------------2-2-2-2-----|
g--9-9-9-9-9-9-9-9-9-9-9-9-9-9-9-9-----2-2-2-2-----|
d--------------------------------------2-2-2-2-etc-|
a--7-7-7-7-7-7-7-7---------------------0-0-0-0-----|
e------------------8-8-8-8-8-8-8-8--3b-------------|

INTRO

E (let ring)

VERSE 1

(E)                                 G#
Well Im not too lazy to care about that
          A                      Am
Sense of purpose, is getting me back
      E       B       C#     F#        B
Well still I try and listen when your mine
E                                 G#
Im not too careful to care about you
         A                     Am
And God willing, neither were you
E           B       C#     F#      B
But still I try and rumble off my lines, well listen...

CHORUS


Figure 1.
Ooooo Ooooo Oooooo  Badly trained and nothing more

Figure 1.
Ooooo Ooooo Oooooo


VERSE 2


(Same chords as Verse 1)

Im not insane, but I know I can behave
And be too careful, than throw it away
And this is how I stumble through my life, well listen...


CHORUS

Figure 1.
Ooooo Ooooo Oooooo,  Bout the train did nothing more

Figure 1.
Ooooo Ooooo Oooooo,  With a tail like a dinosaur

Figure 2.
Ooooo Ooooo Oooooo, Stange attitude to match

Figure 3.   A
Ooooo Ooooo Oh yeaaaah!

                               d u d u
e-------------------------------0---0------|
b-----------------------------0-0-0-0------|
g--2--2-2---------22----------1-1-1-1------|
d--2--2-2-4--4-4--22--3--3-3--2-2-2-2-etc--|  x 2
a--0--0-0-4--4-4--00--3--3-3--2-2-2-2------|
E---------2--2-2------1--1-1--0---0--------|


BRIDGE

A           F#          (with some lead guitar)
Ahhh  Ahhh  Ahhh  Ahhh           x4

                               d u d u
e-------------------------------0---0------|
b-----------------------------0-0-0-0------|
g--2--2-2---------22----------1-1-1-1------|
d--2--2-2-4--4-4--22--3--3-3--2-2-2-2-etc--|  x 1
a--0--0-0-4--4-4--00--3--3-3--2-2-2-2------|
E---------2--2-2------1--1-1--0---0--------|


D
Don't need a reason, I know it sounds strange
A
You be my reason you make me wanna

CHORUS

Figure 1.
Ooooo Ooooo Oooooo  Badly trained and nothing more

Figure 1.
Ooooo Ooooo Oooooo  With a tail like a dinosaur

Figure 2.
Ooooo Ooooo Oooooo Stange attitude to match

Figure 1.      A
Ooooo Ooooo Oh yeaaaah!

                               d u d u
e-------------------------------0---0------|
b-----------------------------0-0-0-0------|
g--2--2-2---------22----------1-1-1-1------|
d--2--2-2-4--4-4--22--3--3-3--2-2-2-2-etc--|  x 2
a--0--0-0-4--4-4--00--3--3-3--2-2-2-2------|
E---------2--2-2------1--1-1--0---0--------|


In 3/4 -->                    In 4/4 -->

                                d u d u
e--------------------------------0---0------|
b------------------------------0-0-0-0------|
g--2-2-2---------2 2-2---------1-1-1-1------|
d--2-2-2--4-4-4--2-2-2--3-3-3--2-2-2-2-etc--|
a--0-0-0--4-4-4--0-0-0--3-3-3--2-2-2-2------|
E---------2-2-2---------1-1-1--0---0--------|

In 3/4 -->                     still 3/4

                                d d d d           stab
e------------------------------0-0-0-0------------0----|
b------------------------------0-0-0-0------------0----|
g--2-2-2---------2 2-2---------1-1-1-1------------1----|
d--2-2-2--4-4-4--2-2-2--3-3-3--2-2-2-2-let ring---2----|
a--0-0-0--4-4-4--0-0-0--3-3-3--2-2-2-2------------2----|
E---------2-2-2---------1-1-1--0-0-0-0------------0----|
comments
We did not receive enough feedback on this tab! Please rate:
print report bad tab
1 2 3 4 5
1 comment total.
0 reply
Ravenous-Axus wrote on May 24 2011, 12:50 am

Great song and lovely tab

I want to post or [tab]
guest
You may want to rate the tab now too:
select rating
Please do not post tabs as comments. Select "correction" instead!