Oops, an error
Loading. Please wait.

Siapa Namamu tab

940 views 1 this week
no commentswrite comment
1 2 3 4 5
3 more votes to show rating
add to favorites
×
Save as Personal and add changes to this tab that will be seen only by you. Learn more ›
×
You can save this tab as Personal to edit and correct it or add notes. All changes will be seen only by you. Learn more »
launch autoscroll
font size
0
reset
how to read this tab
guitar tuner
edit
Autoscroll
slow
fast
+/-
esc
set tempo
stop
Author
Song        : Siapa Namamu
Album       : soekamti.com
Artist      : Endank Soekamti

Tabbed by   : yoos
Email       : yoosyoes@yahoo.com
Blog        : yoosyoes.blogspot.com


e|--------------------------------------------|
B|--------------------------------------------|
G|--------------------------------------------|
D|--------5--------------5--------------------| 2x
A|--7-5-7---7-5-3--7-5-7---7-5--5-7-5-5--3-3--|
E|--------------------------------------------|

e|------------------------------|
B|------------------------------|
G|------------------------------|
D|--5-5-------------------------| 4x
A|--3-3----3-3----5-5-----------|
E|---------1-3----3-3----3-5-3--|

e|--------------------------------------------|
B|--------------------------------------------|
G|--------------------------------------------|
D|--------5--------------5--------------------| 2x
A|--7-5-7---7-5-3--7-5-7---7-5--5-7-5-5--3-3--|
E|--------------------------------------------|

e|------------------------------------|
B|------------------------------------|
G|------------------------------------|
D|--------5---------------------------| 4x
A|--3-3-5----------3--------3------3--|
E|-----------1-1-3----3-3-5----3-5----|

e|--------------------------------------------------------------------------------------|
B|--------------------------------------------------------------------------------------|
G|--5-5-5-5-5-5-5-5--12-12-12-12-12-12-12-12--9-9-9-9-9-9-9-9--11-11-11-11-11-11-11-11--|
D|--------------------------------------------------------------------------------------|
A|--3-3-3-3-3-3-3-3--10-10-10-10-10-10-10-10--7-7-7-7-7-7-7-7---9--9--9--9--9--9--9--9--|
E|--------------------------------------------------------------------------------------|

e|----------------------------------------------------------------------|
B|----------------------------------------------------------------------|
G|--9-9-9-9-9-9-9-9--7-7-7-7-7-7-7-7--9-9-9-9-9-9-9-9--5-5-5-5-5-5-5-5--|
D|----------------------------------------------------------------------| 2x
A|--7-7-7-7-7-7-7-7--5-5-5-5-5-5-5-5--7-7-7-7-7-7-7-7--3-3-3-3-3-3-3-3--|
E|----------------------------------------------------------------------|

e|--------------------------------------------|
B|--------------------------------------------|
G|--------------------------------------------|
D|--------5--------------5--------------------| 2x
A|--7-5-7---7-5-3--7-5-7---7-5--5-7-5-5--3-3--|
E|--------------------------------------------|

e|--------------------------------------|
B|--------------------------------------|
G|--------------------------------------|
D|--5-5-5-5-----------------------------| 4x
A|--3-3-3-3--3-3-3-3--5-5-5-5--5-5-5-5--|
E|-----------1-1-1-1--3-3-3-3--3-3-3-3--|

e|-----------------------------------------------------------------------------------|
B|-----------------------------------------------------------------------------------|
G|-----------------------------------------------------------------------------------|
D|--5-5-5----------------------------10-x-10-x-10-x-10-10-10-10-10-10-10-10-x-x-x-x--|
A|--3-3-3-----5-5-5-----7-x-7-x-7-x---8-x--8-x--8-x--8--8--8--8--8--8--8--8-x-x-x-x--|
E|------------3-3-3-----5-x-5-x-5-x--------------------------------------------------|

e|----------------------------------------------------------------------|
B|----------------------------------------------------------------------|
G|--9-9-9-9-9-9-9-9--7-7-7-7-7-7-7-7--9-9-9-9-9-9-9-9--5-5-5-5-5-5-5-5--|
D|----------------------------------------------------------------------| 2x
A|--7-7-7-7-7-7-7-7--5-5-5-5-5-5-5-5--7-7-7-7-7-7-7-7--3-3-3-3-3-3-3-3--|
E|----------------------------------------------------------------------|

e|--------------------------------------------------------------x-x-x-x-x-x-x-x--|
B|--------------------------------------------------------------x-x-x-x-x-x-x-x--|
G|--------------------------------------------------------------x-x-x-x-x-x-x-x--|
D|-------/9---7-9-/10--9-7--------------------------------------x-x-x-x-x-x-x-x--|
A|--/7---------------------7--5-5/7-7---10-5--3h5-7-/8-10-10----x-x-x-x-x-x-x-x--|
E|--------------------------------------------------------------x-x-x-x-x-x-x-x--|

e|-------------------------------------------------------------|
B|-----------------10-10-10------------------------------------|
G|--9-9-9--7-7-7-7--9--9--9---7-7-7-7--10-9-7--5-7-5--7b9b7-5--|
D|-------------------------------------------------------------|
A|-------------------------------------------------------------|
E|-------------------------------------------------------------|

e|----------------------------------------------------------------|
B|--10-10-10----------10-10-10------------------------------------|
G|---9--9--9--7-7-7-7--9--9--9---7-7-7-7--10-9-7--5-7-5--7b9b7-5--|
D|----------------------------------------------------------------|
A|----------------------------------------------------------------|
E|----------------------------------------------------------------|

e|--8-8-------------10-10-------------12-12-------------13-13-13-13-13---------|
B|--8-8--5-5-5-5-5--10-10--7-7-7-7-7--12-12--9-9-9-9-9--13-13-13-13-13--15-15--|
G|-----------------------------------------------------------------------------|
D|-----------------------------------------------------------------------------|
A|-----------------------------------------------------------------------------|
E|-----------------------------------------------------------------------------|

e|--8-8-------------10-10-------------12-12-------------13-13-13-13-13---------------------------|
B|--8-8--5-5-5-5-5--10-10--7-7-7-7-7--12-12--9-9-9-9-9--13-13-13-13-13--15-15-15-15-15-15-15-15--|
G|-----------------------------------------------------------------------------------------------|
D|-----------------------------------------------------------------------------------------------|
A|-----------------------------------------------------------------------------------------------|
E|-----------------------------------------------------------------------------------------------|


CHORD
=====

C5 F5 A5 G5 2x

C5         F5       G5
kuberjumpa berulang kali
C5         F5       G5
kau terlihat begitu sexy
C5         F5       G5
tak pernah jemu aku pandangi
C5         F5       G5
kini kau tak terlihat lagi

C5 F5 A5 G5 2x

C5         F5       G5
kau buat aku penasaran
C5         F5       G5
tak pernah ada kesempatan
C5         F5       G5
lihat gayamu aku tak tahan
C5         F5       G5
kau buat aku geregetan

C5         G5        A5       F5
slalu saja aku jatuh hati padamu

C5            G5
siapa namamu bilang padaku
A5            F5
jangan pernah kau lari dariku
C5            G5
siapa namamu bilang padaku
A5            F5
jangan pernah jangan jauh dariku

C5 F5 A5 G5 2x

C5         F5       G5
kau seperti sedang patroli
C5         F5       G5
lewat sebentar lalu pergi
C5         F5       G5
kencanlah denganku malam ini
C5         F5       G5
jangan sampai kau tak perduli

C5         G5        A5       F5
slalu saja aku jatuh hati padamu

C5            G5
siapa namamu bilang padaku
A5            F5
jangan pernah kau lari dariku
C5            G5
siapa namamu bilang padaku
A5            F5
jangan pernah jangan jauh dariku

C5 B5 A5 G5 F5 E5 F5 G5
C5 G5 A5 F5 4x

C5            G5
siapa namamu bilang padaku
A5            F5
jangan pernah kau lari dariku
C5            G5
siapa namamu bilang padaku
A5            F5
jangan pernah jangan jauh dariku

            
            
Suggest correction
Creating personal tab
Creating personal tab
You can edit any tab online and save it as your Personal.

You can edit, replace or remove any tab part or add personal notes – all changes will be seen only by you.

Personal tabs can be accessed anytime from any device, even offline.
Learn more »
Give kudos to tab author, rate the tab!
1 2 3 4 5
comments
print report bad tab
guest
You may want to rate the tab now too:
select rating
Wanna post a correction for this tab? Suggest correction