Oops, an error
Loading. Please wait.

Burn In Hell Tab

70 views 1 this week
no commentswrite comment
1 2 3 4 5
please rate
add to favorites
launch autoscroll
font size
0
reset
how to read this tab
guitar tuner
Tab Pro tools
  • play this tab
  • loop segment
  • change instrument
  • show fretboard
  • metronome
Autoscroll
slow
fast
+/-
esc
set tempo
stop
Contributor
| ENDARKEND - BURN IN HELL (DIMMU BORGIR COVER) |

album: dark terror
tabbed by: lester klaassen
email: formulester@hotmail.com
Endarkend is: Floorn, Floris, Dion and Lestn
www.zwaremetalen.com --> bandlist --> Endarkend 

INTRO:

GUITAR 1:
|--------------|---------------------|-------|
|--------------|---------------------|-------|
|--------------|----7-5----5-7-------|-------|
|---2--2-2-----|----7-5----5-7-------|--5-4--|
|---2--2-2-----|----5-3----3-5-------|--5-4--|
|---0--0-0-----|---------------------|--3-2--|


|--------------|---------------------|-------|
|--------------|---------------------|-------|
|--------------|---------------------|-------|
|---2--2-2-----|----7-5----5-7-------|--5-4--|
|---2--2-2-----|----7-5----5-7-------|--5-4--|
|---0--0-0-----|----5-3----3-5-------|--3-2--|
|GUITAR 2:                                     |
|--------------|---------------------|-------|
|--------------|---------------------|----12-|
|--------------|---------------------|-12----|
|--------------|---------------------|-------|
|--------------|---------------------|-------|
|--------------|---------------------|-------|


|------------|--------------------|-------|
|------------|--------------------|-------|
|------------|----7-5----5-7------|-------|
|---2--2-2---|----7-5----5-7------|--5-4--|
|---2--2-2---|----5-3----3-5------|--5-4--|
|---0--0-0---|--------------------|--3-2--|
|GUITAR 2:                                  |
|------------|--------------------|-9h10p9|
|------------|-10--10-12b-12-10---|-------|
|-8--12-11-12|---12---------------|-------|
|------------|--------------------|-------|
|------------|--------------------|-------|
|------------|--------------------|-------|


|--------------|---------------------|-------|
|--------------|---------------------|-------|
|--------------|---------------------|-------|
|---2--2-2-----|----7-5----5-7-------|--5-4--|
|---2--2-2-----|----7-5----5-7-------|--5-4--|
|---0--0-0-----|----5-3----3-5-------|--3-2--|
|GUITAR 2:                                     |
|14h15p14-15-14|15-17-15-17-19b-19-17|-15-14-|
|--------------|---------------------|-------|
|--------------|---------------------|-------|
|--------------|---------------------|-------|
|--------------|---------------------|-------|
|--------------|---------------------|-------|


GUITAR 1:
|------------|------------|-------|------------|------------|-------|
|------------|------------|-------|------------|------------|-------|
|------------|------------|-------|------------|------------|-------|
|---2--2-2---|---2--2-2---|--5-4--|---2--2-2---|---2--2-2---|--5-4--|
|---2--2-2---|---2--2-2---|--5-4--|---2--2-2---|---2--2-2---|--5-4--|
|---0--0-0---|---0--0-0---|--3-2--|---0--0-0---|---0--0-0---|--3-2--|
|GUITAR 2:                                                            |
|---12-(let ring)---------|-------|------------|------------|-------|
|------------|------------|-------|------------|------------|-------|
|------------|------------|-------|------------|------------|-------|
|------------|------------|-------|------------|------------|-------|
|------------|------------|-------|------------|------------|-------|
|------------|------------|-------|------------|------------|-------|

GUITAR 1:
|------------|------------|-------|------------|------------|-------|
|------------|------------|-------|------------|------------|-------|
|------------|------------|-------|------------|------------|-------|
|---2--2-2---|---2--2-2---|--5-4--|---2--2-2---|---2--2-2---|--2-4--|
|---2--2-2---|---2--2-2---|--5-4--|---2--2-2---|---2--2-2---|--2-4--|
|---0--0-0---|---0--0-0---|--3-2--|---0--0-0---|---0--0-0---|--0-2--|
(Welcome to the abandoned land...   Come on in child take my hand...)

|------------|------------|-------|------------|------------|-------|
|------------|------------|-------|------------|------------|-------|
|------------|------------|-------|------------|------------|-------|
|---5--5-5---|---2--2-2---|--2-4--|---5--5-5---|---2--2-2---|--2-4--|
|---5--5-5---|---2--2-2---|--2-4--|---5--5-5---|---2--2-2---|--2-4--|
|---3--3-3---|---0--0-0---|--0-2--|---3--3-3---|---0--0-0---|--0-2--|

|------------|------------|-------|---------------------------------|
|------------|------------|-------|---------------------------------|
|------------|------------|-------|---------------------------------|
|---5--5-5---|---2--2-2---|--2-4--|-------5---------4---------3-----|
|---5--5-5---|---2--2-2---|--2-4--|-------5---------4---------3-----|
|---3--3-3---|---0--0-0---|--0-2--|-------3---------2---------1-----|


|---------------|---------------|----------------|-----------------|
|---------------|---------------|----------------|-----------------|
|-4-------------|-5-------------|--4-------------|--4--------------|
|-4--2-2-2--2-2-|-5--2-2-2--2-2-|--4--2-2-2--2-2-|--4--2-2-2--2-2--|
|-2--2-2-2--2-2-|-3--2-2-2--2-2-|--2--2-2-2--2-2-|--2--2-2-2--2-2--|
|----0-0-0--0-0-|----0-0-0--0-0-|-----0-0-0--0-0-|-----0-0-0--0-0--|


VERSE:
|---------------|---------------|----------------|----------------|
|---------------|---------------|----------------|----------------|
|---------------|---------------|--4-------------|-5--------------|
|-2-------------|--5-4---4-5-4--|--4--2-2-2--2-2-|-5--2-2-2--2-2--|
|-2--(let ring)-|--5-4---4-5-4--|--2--2-2-2--2-2-|-3--2-2-2--2-2--|
|-0-------------|--3-2-0-2-3-2--|-----0-0-0--0-0-|----0-0-0--0-0--|

|---------------|---------------|----------------|----------------|
|---------------|---------------|----------------|----------------|
|---------------|---------------|--4-------------|-5--------------|
|-2-------------|-9-7-5--9-7-5--|--4--2-2-2--2-2-|-5--2-2-2--2-2--|
|-2--(let ring)-|-9-7-5--9-7-5--|--2--2-2-2--2-2-|-3--2-2-2--2-2--|
|-0-------------|-7-5-3--7-5-3--|-----0-0-0--0-0-|----0-0-0--0-0--|

|--------------|--------------|--------------------|-------------------|
|--------------|--------------|--------------------|-------------------|
|--------------|--------------|--------------------|-------------------|
|-5------------|--5-5-5-5-5-5-|-------2------------|-------2-----------|
|-5-(let ring)-|--5-5-5-5-5-5-|-x-x-2--------------|-x-x-2-------------|
|-3------------|--3-3-3-3-3-3-|---------0--0-0-0-0-|--------0--0-0-0-0-|

|--------------|--------------|---------------------------------------|
|--------------|--------------|---------------------------------------|
|--------------|--------------|-5-4-2-4-2------2----------------------|
|-5------------|--5-5-5-5-5-5-|------------5-4---5-4-2-5-4------------|
|-5-(let ring)-|--5-5-5-5-5-5-|----------------------------4-2--------|
|-3------------|--3-3-3-3-3-3-|---------------------------------------|

|----------------|
|----------------|
|-5-4-2----------|
|--------5-4-2---|
|--------------2-|
|----------------|

CHORUS:
|---------------|---------------|----------------|--------------|
|---------------|---------------|----------------|--------------|
|-4-------------|-5-------------|--4-------------|--------------|
|-4--2-2-2--2-2-|-5--2-2-2--2-2-|--4--2-2-2--2-2-|--4-------2---|
|-2--2-2-2--2-2-|-3--2-2-2--2-2-|--2--2-2-2--2-2-|--4-------2---|
|----0-0-0--0-0-|----0-0-0--0-0-|-----0-0-0--0-0-|--2-------0---|

|---------------|---------------|----------------|--------------|
|---------------|---------------|----------------|--------------|
|-4-------------|-5-------------|--4-------------|----------4---|
|-4--2-2-2--2-2-|-5--2-2-2--2-2-|--4--2-2-2--2-2-|--4-------4---|
|-2--2-2-2--2-2-|-3--2-2-2--2-2-|--2--2-2-2--2-2-|--4-------2---|
|----0-0-0--0-0-|----0-0-0--0-0-|-----0-0-0--0-0-|--2-----------|
comments
We did not receive enough feedback on this tab! Please rate:
print report bad tab
1 2 3 4 5
I want to post or [tab]
guest
You may want to rate the tab now too:
select rating
Please do not post tabs as comments. Select "correction" instead!