Oops, an error
Loading. Please wait.

I Wanna Be Your Man Tab

version 1
version 1

Whole song

Interactive

11,651 views 18 this week
7 commentsread comments
1 2 3 4 5
excellent!
x 12
add to favorites
launch autoscroll
font size
0
reset
how to read this tab
guitar tuner
Tab Pro tools
  • play this tab
  • loop segment
  • change instrument
  • show fretboard
  • metronome
Autoscroll
slow
fast
+/-
esc
set tempo
stop
Contributor

The solo is not exact but it should be close enough to give you an idea


Intro:
e|---------------------------------------------------------------|
B|---------------------------------------------------------------|
G|---------------------------------------------------------------| Play 3
D|---------------------------------------------------------------| Times
A|-0-0-0-0-0-0-0-0-0-0-0-0-0-0-0-0-0-0-0-0-0-0-0-0-0-0-0-5p3p0-3-|
E|---------------------------------------------------------------|

e|---------------------------------------------------------------|
B|---------------------------------------------------------------|
G|---------------------------------------------------------------| 
D|---------------------------------------------------------------| 
A|-0-0-0-0-0-0-0-0-0-0-0-0-0-0-0-0-0-0-0-0-0-0-0-0-0-0-0---------|
E|---------------------------------------------------------------|

e|---------------------------------------------------------|
B|---------------------------------------------------------|
G|---------------------------------2-2-2-4-4-4-5-5-5-7-7-7-|
D|-------------------2-2-2-3-3-5-5-------------------------|
A|-2-2-2-3-3-3-5-5-5---------------------------------------|
E|---------------------------------------------------------|

e|-10p8----8----------------|---------------------------------------|
B|------10---10-8-5---------|---------------------------------------|
G|--------------------------|---------------------------------------| 
D|------------------5-5-5-7-|----------------------------5-5-5-7----| 
A|------------------5-5-5-5-|----------------------------5-5-5-7----|
E|------------------3-3-3-5-|----------------------------3-3-3-5----|

e|---------------------------------------------------------------------|
B|---------------------------------------------------------------------|
G|---------------------------------------------------------------------| 
D|-5-5-5-7-----------------------------------------------------5-5-5-7-| 
A|-5-5-5-7-0-0-0-0-0-0-0-0-0-0-0-0-0-0-0-0-0-0-0-0-0-0-0-0-0-0-5-5-5-7-|
E|-3-3-3-5-----------------------------------------------------3-3-3-5-|

e|-10p8------10p8------10p8---------------|
B|------10-8------10-8------10-8----------|
G|-------------------------------9-7------|
D|-----------------------------------10-7-|
A|----------------------------------------|
E|----------------------------------------|

e|-------------------------------------|
B|-------------------------------------|
G|--------------------------------9----|Play 3 Times
D|-7-9-7-9-7-9-7-9-7-9-7-9-7-9-10---10-| 
A|-------------------------------------|
E|-------------------------------------|

e|------------------------------|
B|------------------------------|
G|------------------------------| Repeat Verse
D|-10-9-7-9-7-5-7-5----5-5-5-7--| 
A|------------------7--5-5-5-7--|
E|---------------------3-3-3-5--|

Pre Chorus:             Chorus:
e|---------------------|-------------------------------------|
B|---------------------|-------------------------------------|
G|------------5----7---|--2---5---7---2---5---7---2---5---7--| 
D|--7----5----5----7---|--2---5---7---2---5---7---2---5---7--| 
A|--7----5----3----5---|--0---3---5---0---3---5---0---3---5--|
E|--5----3-------------|-------------------------------------|

e|----------------------|
B|----------------------|
G|----------------------| Repeat Verse and Chorus
D|-3---------5---6-6-7--| 
A|-3---------5---6-6-7--|
E|-1---------3---4-4-5--|

e|---------------------------------------------------------|
B|---------------------------------------------------------|
G|---------------------------------2-2-2-4-4-4-5-5-5-7-7-7-|
D|-------------------2-2-2-3-3-5-5-------------------------|
A|-2-2-2-3-3-3-5-5-5---------------------------------------|
E|---------------------------------------------------------|

e|---------------------------------------------------------------|
B|-5-5-6-6-8-8-8-10-10-10-12-12-12-13-13-13-15-15-17-17-18-18-18-|
G|---------------------------------------------------------------| 
D|---------------------------------------------------------------| 
A|---------------------------------------------------------------|
E|---------------------------------------------------------------|

e|-15-15-15-17-17-17-19-19-19-20-20-20-20p19p17----17------------|
B|----------------------------------------------20----20p19p17---|
G|---------------------------------------------------------------| 
D|---------------------------------------------------------------| 
A|---------------------------------------------------------------|
E|---------------------------------------------------------------|

e|----------------------------------------------|-20p19p17-----------|
B|----17----------------------------------------|----------20p19p17--|
G|-19----19-17-16----17-19^-19^-19^p17----17----|--------------------| 
D|----------------19-------------------19----19-|--------------------| 
A|----------------------------------------------|--------------------|
E|----------------------------------------------|--------------------|

e|-20p19p17----------20p19p17----------20p19p17-----------20p19p17---|
B|----------20p19p17----------20p19p17----------20p19p17-------------|
G|-------------------------------------------------------------------| 
D|-------------------------------------------------------------------| 
A|-------------------------------------------------------------------|
E|-------------------------------------------------------------------|

e|-----------20p19p17-----------------|------------------------------|
B|--20p19p17----------20p19p17-20-20^-|------------------------------|
G|------------------------------------|-14151714151714151714151714---| 
D|------------------------------------|------------------------------| 
A|------------------------------------|------------------------------|
E|------------------------------------|------------------------------|

e|-------------------------------|-----------------------------|
B|-------------------------------|-----------------------------|
G|-19^-19^-19^-17----17----------|-----------------------------| 
D|----------------19----19-17-19-|-------10-12-12-10-10-12-12--| 
A|-------------------------------|-10-12-----------------------|
E|-------------------------------|-----------------------------|

e|---------------------------------15--|
B|--------------------------13-15------|
G|-----12----12-14-12----12------------|
D|--14----14----------14---------------|
A|-------------------------------------|
E|-------------------------------------|

e|--------------------------------------------------------------------|
B|-h12h15p0h12p0h14p0h15p0h17p0h15p0h14p0h12h15p0h12p0h14p0h15p0h17p0-|
G|--------------------------------------------------------------------| 
D|--------------------------------------------------------------------| 
A|--------------------------------------------------------------------|
E|--------------------------------------------------------------------|

e|----------------------------------------------------------|
B|-h15p0h14p0-----------------------------------------------|
G|------------h14h16p0h14p0h16p0h18p0h19p0h18p0h16p0h14h16--| 
D|----------------------------------------------------------| 
A|----------------------------------------------------------|
E|----------------------------------------------------------|

e|---------------------------------------------------------------|
B|---------------------------------------------------------------|
G|-h14h16p0h14p0h16p0h18p0h19p0h18p0h16p0h14s13------------------| 
D|---------------------------------------------------------------| 
A|---------------------------------------------------------------|
E|---------------------------------------------------------------|
comments
print report bad tab
7 comments total. Showing first comments.
+1 reply
arun1910 wrote on March 25 2008, 11:26 am

cause im a begginer im alright nt been playing that long so i cant judge the solo but this is a great tab. 4 stars cause i dnt no about the solo

0 reply
EvilDomo wrote on August 16 2008, 02:57 am

Yay! My request has been fulfilled!

Unless you haven't seen my request months ago, then thanks anyways! Awesome tab!

0 reply
mikey_1990 wrote on March 6 2009, 09:21 am

dude great tab

I want to post or [tab]
guest
You may want to rate the tab now too:
select rating
Please do not post tabs as comments. Select "correction" instead!