Oops, an error
Loading. Please wait.

No More Words Tab

version 1
version 1

Intro

Whole song

Interactive

11,648 views 12 this week
no commentswrite comment
1 2 3 4 5
accurate
x 2
add to favorites
launch autoscroll
font size
0
reset
how to read this tab
guitar tuner
Tab Pro tools
  • play this tab
  • loop segment
  • change instrument
  • show fretboard
  • metronome
Autoscroll
slow
fast
+/-
esc
set tempo
stop
Contributor
Artist: EndeverafteR / Jim Johnston
Song: No More Words
Album: WWE The Music Volume 8
Tabbed by:L. Yarib

Bass
(Bajo)
|-------------------------| x4
|-------------1-----------|
|-------------------------|
|-0-0-2-0-2-0--0-2-0-5-4-2|

In the 3° moment play this
(En la 3° vez tocas esto)
|---2~---|
|---2~---|
|--------|
|--------|
|--------|
|--------|

Intro
(Inicio)
|-------------------------------------|
|-------------------------------------|
|-------------------------------------|  x4
|---------------7/8-8-----------7-6-4-|
|--6-6----------5/6-6--------6--7-6-4-|
|--0-0-2-0-2-0-------------2-0--5-4-2-|

Verse
(Verso)
|----------------------------|
|--------------4~------------|
|----------------------------| x3
|-1-1-4-1-4-1----1-4-1-7-6-4-|
|----------------------------|
|----------------------------|

|------------------------------|
|--------------4~--------------|
|------------------------------|
|-1-1-4-1-4-1----1-4-1-4-7-6-4-|
|------------------------------|
|------------------------------|

PreChorus
(PreCoro)
|-----------------------------------------------------------------|
|----------------------4~-----------------------------------------|
|-----------------------------------------------------------------|
|-5--7----1-1-4-1-4-1------1-4-1-4-7-6-4---5--7-----8-8--8-8--8-8-|
|-5--7-------------------------------------5--7-----8-8--8-8--8-8-|
|-3--5-------------------------------------3--5-----6-6--6-6--6-6-|

Chorus
(Coro)
Guitar 1
|----6-6-4-9-4----6-6-4-9-6----6-6-4-9-6----6-6-4-9-6-|
|-----------------------------------------------------|
|-----------------------------------------------------|
|-----------------------------------------------------|
|-----------------------------------------------------|
|-----------------------------------------------------|

|----6-6-4-9-6--6-6-4-9-6------------------------------|
|------------------------------------------------------|
|------------------------------------------------------|
|--------------------------8-8-8-7-8-8-8-7-8-8-8-7-8-6-|
|--------------------------8-8-8-7-8-8-8-7-8-8-8-7-8-6-|
|--------------------------6-6-6-5-6-6-6-5-6-6-6-5-6-4-|

Guitar 2
|------------------------------------------------------|
|------------------------------------------------------|
|------------------------------------------------------|
|--5--7--8--7-6-4--5--7----8-8-8-7-8-8-8-7-8-8-8-7-8-6-|
|--5--7--8--7-6-4--5--7----8-8-8-7-8-8-8-7-8-8-8-7-8-6-|
|--3--5--6--5-4-2--3--5----6-6-6-5-6-6-6-5-6-6-6-5-6-4-|

Interlude
(Intermedio)
|--5~---6-4-6-4-6-4-6-4-3-1-0-10~-9-7-5~-|
|--5~------------------------------------|
|----------------------------------------|
|----------------------------------------|
|----------------------------------------|
|----------------------------------------|

Verse Again
(Verso)

PreChorus(At the end Pick the Scrape on the 4° & 5°)
(PreCoro,al final pasas la púa en la 4° y 5° cuerda)

Chorus
(Coro)

Interlude
(Intermedio)
|----------------------------|
|----------------------------|
|--------------------------8-|
|--8-8-8-7-8-8-7-8-8-8-7-8-8-|
|--8-8-8-7-8-8-7-8-8-8-7-8-6-|
|--6-6-6-5-6-6-5-6-6-6-5-6---|

|---------------------|
|---------------------|
|---------------------| x2
|---------------------|
|--2-3--5-7-----------|
|--0-1--3-5-----------|


|-----------|
|-----------|
|-----------| x2
|-----------|
|--8-8-8-7--|
|--6-6-6-5--|

|---|
|---|
|---|
|-8-|
|-8-|
|-6-|

Solo ( For this part send me an email,read at final of the tab )
                                       S  S  S S
|--10b-10b-10b-9-10(11)10(11)10(11)10--10-9--7-5-|
|------------------------------------------------|
|------------------------------------------------|
|------------------------------------------------|
|------------------------------------------------|
|------------------------------------------------|

|-15b-16(18)16-16-14-12---------------------------|
|------------------------15-14-12----------14h15b-|
|---------------------------------12-10-9---------|
|-------------------------------------------------|
|-------------------------------------------------|
|-------------------------------------------------|

|--------------------------------------------------------------------------|
|--17-15-13----------------------------------------------------------------|
|-----------15-13-12-------------------------15-14-12----------------------|
|--------------------18-16-14-14h17p14h17p14----------17-15-14-------------|
|--------------------------------------------------------------14-12-10-9--|
|--------------------------------------------------------------------------|

|--------------------------------------------------------------|
|-------------------------------------------8-10-12-12-13-15b--|
|----------------------------------12-13-15--------------------|
|----------------12-14-15-14-15-17-----------------------------|
|-------12-13-15-----------------------------------------------|
|-13-15--------------------------------------------------------|

|--12~-19~-19~-19~-20b-10b-20b-10(11)10~(11)10b--|
|------------------------------------------------|
|------------------------------------------------|
|------------------------------------------------|
|------------------------------------------------|
|------------------------------------------------|

|-----------------------------------------------------------------10(11)10-|
|-----------------9-10(11)10(11)10-10(11)10--10(11)10(11)10(11)10----------|
|---------9-10-12----------------------------------------------------------|
|-8-10-12------------------------------------------------------------------|
|--------------------------------------------------------------------------|
|--------------------------------------------------------------------------|

Chorus
(Coro)

Special Chorus for Guitar 1   x2
(Coro Especial para guitarra principal)
|-----6-6-4--9-8-6-4----6-6-4--9-8-6-4----6-6-4--9-8-6-4----6-6-4--9-8-6-4-|
|--------------------------------------------------------------------------|
|--------------------------------------------------------------------------|
|--------------------------------------------------------------------------|
|--------------------------------------------------------------------------|
|--------------------------------------------------------------------------|

|----6-6-4--9-8-6-4-----6-6-4--9-8-6-4------------------------------|
|-------------------------------------------------------------------|
|-----------------------------------------------------------------8-|
|---------------------------------------8-8-8-7-8-8-8-7-8-8-8-7-8-8-|
|---------------------------------------8-8-8-7-8-8-8-7-8-8-8-7-8-6-|
|---------------------------------------6-6-6-5-6-6-6-5-6-6-6-5-6---|

Outro
(Final)
|----------------------------|
|----------------------------|
|--------------------------8-| x2
|--8-8-8-7-8-8-7-8-8-8-7-8-8-|
|--8-8-8-7-8-8-7-8-8-8-7-8-6-|
|--6-6-6-5-6-6-5-6-6-6-5-6---|

|----------------------------------------|
|----------------------------------------|
|-------------------------------------11-| x2
|-11-11-11-10-11-11-10-11-11-11-10-11-11-|
|-11-11-11-10-11-11-10-11-11-11-10-11--9-|
|--9--9--9--8--9--9--8--9--9--9--8--9----|

|----------|
|----------|
|---6~\----|
|---6~\----|
|---4~\----|
|----------|


For more information send me a message to:
(Para más información envía un mensaje a:)

yarib75@hotmail.com

or to
(o a)

demon_of_heaven_tabris_yarib@hotmail.com

Thanks for your atention,practice everyday,yeah!
(Gracias por su atención,practica diario,¡yeah!)
comments
We did not receive enough feedback on this tab! Please rate:
print report bad tab
1 2 3 4 5
I want to post or [tab]
guest
You may want to rate the tab now too:
select rating
Please do not post tabs as comments. Select "correction" instead!