Oops, an error
Loading. Please wait.

No More Words Tab

version 2
version 2

Intro

Whole song

Interactive

16,022 views 30 this week
4 commentsread comments
1 2 3 4 5
accurate
x 9
add to favorites
launch autoscroll
font size
0
reset
how to read this tab
guitar tuner
Tab Pro tools
  • play this tab
  • loop segment
  • change instrument
  • show fretboard
  • metronome
Autoscroll
slow
fast
+/-
esc
set tempo
stop
Contributor
Song: No More Words
Band: EndeverafteR
Album: WWE the music volume 8

this song rocks!
this is the 4:23 version


Intro (0:04)
e|---------------|
B|---------------|
G|---------------|
D|---------------|
A|---------------|
D|----------9----|
*note, play ^ this with thumb


e|----------------------------------------|
B|----------------------------------------|
G|----------------------------------------|
D|----------------------------------------| X3
A|-0-0-2-0-3-0---6-6-5--6-5-3-0-----------|
D|-0-0-2-0-3-0---6-6-5--6-5-3-0-----------|


e|----------------------------------------|
B|----------------------------------------|
G|----------------------------------------|
D|----------------------------------------| X3
A|----------------------------------------|
D|-0-0-2-0-3-0---6-6-5--6-5-3-0-----------|
    ^ play whole thing palm muted
i got a sharp stick, i keep in my pocket, i speak volumes never utter a word, when u 
a match, the fire will happen but the line between the smoke and the flames get blurred

e|----------------------------------------|
B|----------------------------------------|
G|----------------------------------------|
D|----------------------------------------|
A|-----5----7-----9-----------------------|
D|-----3----5-----7-----------------------|
dont you see the writing on the wall

e|----------------------------------------|
B|----------------------------------------|
G|----------------------------------------|
D|----------------------------------------|
A|-----5----7-----9-9---9-9---9-9---------|
D|-----3----5-----7-7---7-7---7-7---------|
your in way over your head, your gonna drown in the things that you said

e|-12-9-----|
B|------10--|
G|----------| X12
D|----------|
A|----------|
D|----------|
throughtout the chorus, play this 12 times
time has come and gone for words, a thousand threats ive heard before, when words are 
when lies are made to pay

e|----------------------------------------|
B|----------------------------------------|
G|----------------------------------------|
D|----------------------------------------|
A|--9-9--7--9-9--7--9-9--7-9-7-5----------|
D|--7-7--5--7-7--5--7-7--5-7-5-3----------|

e|-12-9-----|
B|------10--|
G|----------| X12
D|----------|
A|----------|
D|----------|
time has come and gone for words a thousand threats ive heard before and all your words 
too big to take

e|----------------------------------------|
B|----------------------------------------|
G|----------------------------------------|
D|----------------------------------------|
A|--9-9--7--9-9--7--9-9--7-9-7-5----------|
D|--7-7--5--7-7--5--7-7--5-7-5-3----------|


before the lyrics
e|----------------------12~--12-10-9-9p10-|
B|12~-12-12-12-12-12-12-------------------|
G|----------------------------------------|
D|----------------------------------------|
A|----------------------------------------|
D|----------------------------------------|

e|----------------------------------------|
B|----------------------------------------|
G|----------------------------------------|
D|----------------------------------------| X3
A|----------------------------------------|
D|-0-0-2-0-3-0---6-6-5--6-5-3-0-----------|
    ^ play whole thing palm muted
It's a paradox, A mystery, A riddle
A door in your face and only I have the key
Do understand, you'll be caught in the middle
Caught in a web by being spun by me

e|----------------------------------------|
B|----------------------------------------|
G|----------------------------------------|
D|----------------------------------------|
A|-----5----7-----9-----------------------|
D|-----3----5-----7-----------------------|
dont you see the writing on the wall

e|----------------------------------------|
B|----------------------------------------|
G|----------------------------------------|
D|----------------------------------------|
A|-----5----7-----9-9---9-9---9-9---------|
D|-----3----5-----7-7---7-7---7-7---------|
just a victim of your own conceit, the architect of your own defeat!!!

e|-12-9-----|
B|------10--|
G|----------| X12
D|----------|
A|----------|
D|----------|
time has come and gone for words a thousand threats ive heard before, when words are 
when lies are made to pay
e|-12-9-----|
B|------10--|
G|----------| X12
D|----------|
A|----------|
D|----------|
time has come and gone for words a thousand threats ive heard before and all your words 
too big to take
e|------------------------------|
B|------------------------------|
G|------------------------------|
D|------------------------------| X2
A|---------------------------5--|
D|-7--7-7-5-7-7---5-7-7-5-7-----|

e|----------------------------------------|
B|----------------------------------------|
G|----------------------------------------|
D|----------------------------------------| X3
A|----------------------------------------|
D|-2-2-2-2-4-4-4-4-5-5-5-5-7-7-7-7--------|
      ^play this while palm muted, the third time you play this, dont palm mute it!!
 Never walk away from a fight thats worth fighting
Never hesitate when you know you're gonna act
Never waste your words on a fool you won't listen
Never sell your soul cause you'll never buy it...back

I dont know the solo, sorry:( but for the solo, the second guitar is the same riff and chords

e|-12-9-----|
B|------10--|
G|----------| X12
D|----------|
A|----------|
D|----------|
Time has come and gone for words
A thousands threats i've heard before
But words are cheap, but lies are big to take


e|----------------------------------------|
B|----------------------------------------|
G|----------------------------------------|
D|----------------------------------------|
A|--9-9--7--9-9--7--9-9--7-9-7-5----------|
D|--7-7--5--7-7--5--7-7--5-7-5-3----------|

e|-12-9-----|
B|------10--|
G|----------| X12
D|----------|
A|----------|
D|----------|
Time has come and gone for words
A thousands threats i've heard before
And all your words are too big to take


e|----------------------------------------|
B|----------------------------------------|
G|----------------------------------------|
D|----------------------------------------|
A|--9-9--7--9-9--7--9-9--7-9-7-5----------|
D|--7-7--5--7-7--5--7-7--5-7-5-3----------|

e|-12-9-----|
B|------10--|
G|----------| X12
D|----------|
A|----------|
D|----------|
Time has come and gone for words
A thousands threats i've heard before
But words are cheap, but lies are big to take

e|----------------------------------------|
B|----------------------------------------|
G|----------------------------------------|
D|----------------------------------------|
A|--9-9--7--9-9--7--9-9--7-9-7-5----------|
D|--7-7--5--7-7--5--7-7--5-7-5-3----------|

e|-12-9-----|
B|------10--|
G|----------| X12
D|----------|
A|----------|
D|----------|
the ending of this part is optional, cuz 1 guitar plays this tab ^ while they other 
the strings

e|------------------------------|
B|------------------------------|
G|------------------------------|
D|------------------------------| X2
A|---------------------------5--|
D|-7--7-7-5-7-7---5-7-7-5-7-----|

e|------------------------------|
B|------------------------------|
G|------------------------------|
D|------------------------------| X2
A|---------------------------7--|
D|-9-9-9--7-9-9---7-9-9-7-9-----|
at the end, do a mini string scratch

and there you have it! NO MORE WORDS! jeff hardy 4ever!
comments
print report bad tab
4 comments total. Showing first comments.
+1 reply
epic-identity wrote on January 16 2009, 11:36 am

Some parts arn't completely right but overall a decent tab 4*

0 reply
andy32296 wrote on January 19 2009, 12:00 pm

thanks, ill try to get the right tab! :)

+1 reply
JoePerry's#1fan wrote on January 24 2009, 09:47 pm

Nice tab. I've been wanting to learn this song for EVER. Jeff Hardy rocks!

I want to post or [tab]
guest
You may want to rate the tab now too:
select rating
Please do not post tabs as comments. Select "correction" instead!