Oops, an error
Loading. Please wait.

Star Of The County Down Tab

7,744 views 60 this week
no commentswrite comment
1 2 3 4 5
x 6
add to favorites
launch autoscroll
font size
0
reset
how to read this tab
guitar tuner
Autoscroll
slow
fast
+/-
esc
set tempo
stop
Help us to improve Ultimate-Guitar.com Take our survey!
×
Author
Difficulty
novice
                                          Artist - Energy Orchard
                                         *************************
                                       Song - Star Of The County Down
                                      ********************************
                                              Album - Shinola 
                                             *****************
                                           Tabbed By - Ayreon77
                                          **********************



Repeat Section 1 throughout the whole song.
Section 1
**********
[-----------|-----------|-----------------]
[-----------|-----------|-----2-----------]
[-----------|-----2-2-4-|-2-4---4-2-------]
[---2-4-4-4-|-2-4-------|-----------4-4-2-]
[-4---------|-----------|-----------------]
[-----------|-----------|-----------------]


[-----------|-----------|-----------------]
[-----------|-----------|-----2-----------]
[-----------|-----2-2-4-|-2-4---4-2-------]
[---2-4-4-4-|-2-4-------|-----------4-2-4-]
[-4---------|-----------|-----------------]
[-----------|-----------|-----------------]


[---------|-----------|-----------------]
[-2-5-5-5-|-2---------|-----2-----------]
[---------|---2-4-4-4-|-2-4---4-2-------]
[---------|-----------|-----------4-4-2-]
[---------|-----------|-----------------]
[---------|-----------|-----------------]


[-----------|-----------|-----------------]
[-----------|-----------|-----2-----------]
[-----------|-----2-2-4-|-2-4---4-2-------]
[---2-4-4-4-|-2-4-------|-----------4-2-4-]
[-4---------|-----------|-----------------]
[-----------|-----------|-----------------]

---------------------------------------------------------------------------

VERSE 1
********
   F#m                    A      
In Banbridge Town, in the County Down 
    F#m          E
One morning last July 
       F#m                 A     
From a boreen green came a sweet colleen 
        F#m                     E
And she smiled as she passed me by
         A                        E
And, she looked so sweet from her two bare feet
       F#m                    E
To the sheen of her nut-brown hair
       F#m                   A
Such a coaxing elf, Should i shook myself 
       F#m                 
For to see was i really there

---------------------------------------------------------------------------
CHORUS
*******
     A                E
from Bantry Bay up to Derry Quay 
F#m              E
Galway to Dublin town 
   F#m                     E
No maid I've seen like the sweet colleen 
       F#m
That I met in the County Down

---------------------------------------------------------------------------
VERSE 2
********
       F#m                 A
As she onward sped, sure I scratched head 
      F#m                   E
And I looked with a feeling rare
      F#m                A
And I said, says I, to a passer-by
           F#m                     E
"Who's the maid with the nut-brown hair
   A                    E
he smiled at me, and he said, says he
            F#m              E
"That's the gem of Ireland's crown
      F#m                   A
Thats Rosie McCann from the banks of the Bann
          F#m
She's the Star of the County Down 
 
---------------------------------------------------------------------------
CHORUS
*******
---------------------------------------------------------------------------
SOLO
*****
[------------|------------|----------------------|---------------]
[-10-9-10-10-|-9----9-9-9-|----9-10-9------------|-10-9----------]
[------------|---11-------|-11--------11-9-11----|------11-11-11-]
[------------|------------|-------------------11-|---------------]
[------------|------------|----------------------|---------------]
[------------|------------|----------------------|---------------]

                                        s
[--------------|---------|---------9-14-\-]
[----9-10-9-12-|-10-9----|-9-10-12--------]
[-11-----------|------11-|----------------]
[--------------|---------|----------------]
[--------------|---------|----------------]
[--------------|---------|----------------]

---------------------------------------------------------------------------
VERSE 3
********
       F#m                    A
At the harvest fair she'll be surely there
         F#m                E
And I'll dress in my Sunday clothes
        F#m                       A 
With me shoes shone bright, and my hat cocked right
      F#m                     E
For a smile from my nut-brown Rose
   A                   E  
No pipe I'll smoke, no horse I'll yoke
          F#m                        E
Though my brown colored rust colored plow
       F#m                 A
Till a smiling bride by my own fireside 
         F#m
Sits the Star of the County Down

---------------------------------------------------------------------------
CHORUS - X3
*******
---------------------------------------------------------------------------

02:45
[--------------------|------------------------]
[-10----9----10-12-9-|-10--12--14-10-14-12-10-]
[--------------------|------------------------]
[--------------------|------------------------]
[--------------------|------------------------]X3
[--------------------|------------------------]


[--------------------------------------------------------------------------]
[--------------------------------------------------------------------------]
[--------------------------------------------------------------------------]
[-4-4-4-4-4-4-4-4-4-4-4-4-4-4-4-4-4-4-4-4-4-4-4-4-4-4-4-4-4-4-4-4-4-4-4-4--]
[--------------------------------------------------------------------------]
[--------------------------Play This To End The Song-----------------------]


http://en.wikipedia.org/wiki/Energy_Orchard
http://www.youtube.com/watch?v=1HFQZmz3TlI

This is a cool tune too play. Enjoy.............
Suggest correction
comments
print report bad tab
guest
You may want to rate the tab now too:
select rating
Wanna post a correction for this tab? Suggest correction