Oops, an error
Loading. Please wait.

Dom Quixote chords

version 2
version 2

Whole song

  • Hey, i'm uploading this because the other guy who ... Show more
53 views 1 this week
no commentswrite comment
1 2 3 4 5
3 more votes to show rating
add to favorites
×
Save as Personal and add changes to this tab that will be seen only by you. Learn more ›
×
You can save this tab as Personal to edit and correct it or add notes. All changes will be seen only by you. Learn more »
launch autoscroll
font size
0
reset
transpose
0
reset
simplify chords
display chords
guitar tuner
edit
Autoscroll
slow
fast
+/-
esc
set tempo
stop
Author
Difficulty
About this tab version
Hey, i'm uploading this because the other guy who contribuited with this Brazilian song (my native country) messed up the chords and mixed them all up, not worrying about the original ones. Also, he messed up the chord names and didn't care about translating them. Was this info helpful? Yes No
Strumming
There is no strumming pattern for this song yet. and get +5 IQ
A: x02220
Asus2: x02200
Dm7sus2: x00220
Dsus2: x00230
Bm: x24432
D5: x577xx
C7: x4342x
F#m: 244222
F#m/E: xx2222
E: 022100
D: xx0232


Tom: A (original)

Intro:  A Asus2 A
        Dm7sus2 Dsus2 Dm7sus2

Verso 1:

 A             Asus2       A
muito prazer, meu nome é otário
Dm7sus2                 Dsus2           Dm7sus2
vindo de outros tempos mas sempre no horário
  A               Asus2    A        Dm7sus2 Dsus2
peixe fora d'água, borboletas no aquário

Verso 2:

 A             Asus2       A
muito prazer, meu nome é otário
    Dm7sus2         Dsus2      Dm7sus2
na ponta dos cascos e fora do páreo
A           Asus2 A        Dm7sus2 Dsus2
puro sangue    puxando carroça

Instrumental:

( A Asus2 A )
( Dm7sus2 Dsus2 Dm7sus2 )

Verso 3:

A               Asus2    A
Um prazer cada vez mais raro
 Dm7sus2          Dsus2      Dm7sus2
Aerodinâmica num tanque de guerra
A                    Asus2 A        Dm7sus2 Dsus2
Vaidades que a terra um   dia há de comer

Verso 4:

A                 Asus2    A
às de espadas fora do baralho
  Dm7sus2          Dsus2      Dm7sus2
Grandes negócios, pequeno empresário
 A            Asus2         Dm7sus2 Dsus2
muito prazer me chamam de otário

 Bm                    D5
por amor às causas perdidas

Refrão:

A              C7
tudo bem...até pode ser
          F#m          F#m/E     D5
que os dragões sejam moinhos de vento
A               C7
tudo bem...seja o que for
     F#m          F#m/E     D5
seja por amor às causas perdidas
Bm                     E
por amor às causas perdidas

Instrumental: F#m D F#m F#m/E D Bm D Bm

Refrão:

A              C7
tudo bem...até pode ser
          F#m          F#m/E     D5
que os dragões sejam moinhos de vento
A               C7
tudo bem...seja o que for
     F#m          F#m/E     D5
seja por amor às causas perdidas
Bm                     E
por amor às causas perdidas


==Violões 2 e 3==


E|-------5-----4----5----5----5----7-5-4-5-------5----4----5----5----5----7-----|
B|-----5-----5----5----5----5----5-------------5----5----5----5----5----5-------|
G|---6-----6----6----6----6----6-------------7----7----7----7----7----7---------|
D|-----------------------------------------0------------------------------------|
A|-0----------------------------------------------------------------------------|
E|------------------------------------------------------------------------------|



E|----------------------------------|
B|---------------------2-2-2h3-2----|
G|-2---2---2-2p0-4-4p2--------------|
D|---4---4--------------------------|
A|----------------------------------|
E|----------------------------------|


E|-12p0-10p0(4x)-17p0-14p0(4x)------|
B|----------------------------------|
G|----------------------------------|
D|----------------------------------|
A|----------------------------------|
E|----------------------------------|


E|-19-12-19-------------------------|
B|----------12-12-14-14-15-15-17-17-|
G|----------------------------------|
D|----------------------------------|
A|----------------------------------|
E|----------------------------------|

            
            
Suggest correction
Creating personal tab
Creating personal tab
You can edit any tab online and save it as your Personal.

You can edit, replace or remove any tab part or add personal notes – all changes will be seen only by you.

Personal tabs can be accessed anytime from any device, even offline.
Learn more »
Give kudos to tab author, rate the tab!
1 2 3 4 5
comments
print report bad tab
guest
You may want to rate the tab now too:
select rating
Wanna post a correction for this tab? Suggest correction