Oops, an error
Loading. Please wait.

Id Really Love To See You Tonight Bass Tab

version 1
version 1

Whole song

628 views 3 this week
no commentswrite comment
1 2 3 4 5
not so good
x 1
add to favorites
launch autoscroll
font size
0
reset
guitar tuner
Tab Pro tools
  • play this tab
  • loop segment
  • change instrument
  • show fretboard
  • metronome
Autoscroll
slow
fast
+/-
esc
set tempo
stop
Contributor
I Really Love to See You Tonight
England Dan & John Ford Coley
Tabbed by avill616@yahoo.com
this song is for ms. sarah geronimo.. hope i can get a chance to know you

intro 
Fsus2 F 3x  C

Verse1
G|------------------------|---------------------------|
D|------------------------|---------------------------|
A|-----3-------------3----|--0---5-5---1-1---3-3--3---|
E|-3--3---1---1-3---3---1-|-1-----------------------0-|

Verse2
G|------------------------|--------------------------------|
D|------------------------|--------------------------------|
A|-----3-------------3----|--0---5-5---1-1-1-1---3-3-------|
E|-3--3---1---1-3---3---1-|-1------------------------3-3-0-|

Chorus1
G|-------------------|-------------------|----------------|---------|
D|-------------------|-------------------|----------------|---------|
A|--------------5--5-|--------------5--5-|--------------5-|---------|
E|-6--8-8--5-5-------|-6--8-8--5-5-------|-6--8-8--5-5----|-6-----1-|

Repeat intro

Verse3
G|-------------------------|--------------------------------|
D|-------------------------|--------------------------------|
A|------3-------------3----|--0---5-5---1-1-1-1---3-3-------|
E|-\3--3---1---1-3---3---1-|-1------------------------3-3-0-|

Repeat chorus

Bridge 
G|--------------------|------------|---------|
D|--------------------|------------|---------|
A|-5--5-5--5----------|----------8-|-8-8-----|
E|----------5--5-5--5-|-6--6-8--8--|-----8-5-|

G|--------------------|-------------------------------|
D|--------------------|-------------------------------|
A|-5--5-5--5----------|-------------------3-3-3-3-----|
E|----------5--5-5--5-|-6-6-6-6-6-6-6-6-----------3-0-|

Chorus2
G|-------------------|-------------------|
D|-------------------|-------------------|
A|--------------5--5-|--------------5--5-|
E|-6--8-8--5-5-------|-6--8-8--5-5-------|

G|----------------|------------------------------|
D|----------------|------------------------------|
A|--------------5-|------------------3-3-3-3-----|
E|-6--8-8--5-5----|-6-6-6-6-6-6-6-6----------3-0-|

repeat chorus2 till fade
comments
We did not receive enough feedback on this tab! Please rate:
print report bad tab
1 2 3 4 5
I want to post or [tab]
guest
You may want to rate the tab now too:
select rating
Please do not post tabs as comments. Select "correction" instead!