Oops, an error
Loading. Please wait.

Id Really Love To See You Tonight Bass Tab

version 2
version 2

Whole song

281 views 1 this week
no commentswrite comment
1 2 3 4 5
please rate
add to favorites
launch autoscroll
font size
0
reset
guitar tuner
Autoscroll
slow
fast
+/-
esc
set tempo
stop
Help us to improve Ultimate-Guitar.com Take our survey!
×
Author
-----------------------------------------------------------------------------
      I'D REALLY LOVE TO SEE YOU TONIGHT - England Dan & John Ford Coley
-----------------------------------------------------------------------------

Tabbed by: Matt Broback
e-mail: 37hambone@gmail.com

Tuning:  E A D G

s = sixteenth note


INTRO    x4
|----------|
|:--------:|
|:--------:|
|----------|


VERSE 1
|--------|--------|--------|----------|--------|--------|--------|--------|
|--------|3------3|5--0----|3---------|--------|--------|--------|--------|
|----3--3|--------|----3--3|----------|0------0|5------0|3------3|3----3-3|
|3--3----|--------|--------|-------1/3|--------|--------|--------|--------|


VERSE 2
|--------|--------|--------|----------|--------|--------|--------|--------|
|--------|3------3|5--0----|3---------|--------|--------|--------|--------|
|----3--3|--------|----3--3|----------|0------3|5-------|-3-3-3-3|-3-3-3--|
|3--3----|--------|--------|-------1/3|--------|--------|--------|-------5|


CHORUS 1                                                                     x3
|--------|--------|--------|--------|--------|--------|--------|--------|------|
|--------|--------|--------|--------|--------|--------|--------|--------|:----:|
|--------|--------|--------|--35----|--------|--35----|--------|--------|:----:|
|6--666-6|55-555-5|66-666-3|55-----5|66-666-6|55------|6-------|1-------|------|


VERSE 3
|---------|--------|--------|----------|--------|--------|--------|--------|
|---------|3------3|5--0----|3---------|--------|--------|--------|--------|
|-----3---|--------|----3--3|----------|0------3|5-------|-3-3-3-3|-3-3-3--|
|/3--3----|--------|--------|-------1/3|--------|--------|--------|-------5|


CHORUS 2
|--------|--------|--------|--------|--------|--------|--------|---------|
|--------|--------|--------|--------|--------|--------|--------|---------|
|--------|--------|--------|--35----|--------|--35----|--------|8------8\|
|6--666-6|55-555-5|66-666-6|55-----5|66-666-6|55------|6-------|---------|


BRIDGE
|----------|----------|--------|--------|----------|----------|--------|--------|
|---ssss---|----------|--------|--------|---ssss---|----------|--------|--------|
|5--5535--3|---ssss---|--------|8---8-7-|5--5535--3|---ssss---|33-333-3|33-3----|
|----------|5--5535--5|6--68--8|--------|----------|5--5535---|--------|-----345|


OUTRO
|--------|--------|--------|--------|--------|--------|--------|--------|
|--------|--------|--------|--------|--------|--------|--------|--------|  repeat
|--------|--------|--------|--35----|--------|--35----|--------|--------|    to
|6--666-6|55-555-5|66-666-6|55-----5|66-666-6|55------|66666666|--6--345|   fade
Suggest correction
What's this?
You can suggest a correction to this tab. Community and Mods will review your correction and vote to approve or reject it.
comments
We did not receive enough feedback on this tab! Please rate:
print report bad tab
1 2 3 4 5
guest
You may want to rate the tab now too:
select rating
Please do not post tabs as comments. Select "correction" instead!