Oops, an error
Loading. Please wait.

Whos Lonely Now tab

137 views 3 this week
no commentswrite comment
1 2 3 4 5
3 more votes to show rating
add to favorites
×
Save as Personal and add changes to this tab that will be seen only by you. Learn more ›
×
You can save this tab as Personal to edit and correct it or add notes. All changes will be seen only by you. Learn more »
launch autoscroll
font size
0
reset
how to read this tab
guitar tuner
edit
Autoscroll
slow
fast
+/-
esc
set tempo
stop
Author
Difficulty
Intro
Rhythm bit
e|---1---------1-------1--------1------1----------1-------1----------1-------|
B|---------1-----------------1----------------1------------------1-----------|
G|-------2-------2---------2------2---------2--------2---------2-------2-----|
D|---0-----------------0---------------0------------------0------------------|
A|---------------------------------------------------------------------------|
E|---------------------------------------------------------------------------|
e|---------------------------------------------------------------------------|

Lead bit (repeat as necessary) 
e|------------|
B|-----5-6----|
G|---7--------|
D|------------|
A|------------|
E|------------|


Verse 1
e|---1---------1-------1--------1------1----------1-------1----------1-------|
B|---------1-----------------1----------------1------------------1-----------|
G|-------2-------2---------2------2---------2--------2---------2-------2-----|
D|---0-----------------0---------------0------------------0------------------|
A|---------------------------------------------------------------------------|
E|---------------------------------------------------------------------------|

e|---0--------0-------3p0-------0---------------0----------------------------|
B|---------1-----------------1---------------1------------3---3-1---1--------|
G|-------0-------0---------0------0--------0-------0--------0---------0------|
D|---2----------------2----------------0h2----------------2------------------|
A|---------------------------------------------------------------------------|
E|---------------------------------------------------------------------------|

e|---1---------1-------1--------1------1----------1-------1----------1-------|
B|---------1-----------------1----------------1------------------1-----------|
G|-------2-------2---------2------2---------2--------2---------2-------2-----|
D|---0-----------------0---------------0------------------0------------------|
A|---------------------------------------------------------------------------|
E|---------------------------------------------------------------------------|

e|---0--------0-------3p0-------0---------------0--------(0)-----------------|
B|---------1-----------------1---------------1------------------1---1--------|
G|-------0-------0---------0------0--------0-------0----------0--------0-----|
D|---2----------------2----------------0h2----------------2-3-------2--------|
A|---------------------------------------------------------------------------|
E|---------------------------------------------------------------------------|

Pre-Chorus
e|---1---------1------1----------1------1---------1------1----------1--------|
B|---------3-----------------3----------------3-----------------3------------|
G|-------3-------3---------3-------3--------3-------3---------3-------3------|
D|---3----------------3-----------------3----------------3-------------------|
A|---------------------------------------------------------------------------|
E|---------------------------------------------------------------------------|

e|--1---------1------------1-----------0--------0----------------------------|
B|--------1--------------1-------------------1-------------------------------|
G|------2-------2----0h2------0------------0------0--------------------------|
D|--3----------------3------------3----2----------3---2----------------------|
A|---------------------------------------------------------------------------|
E|---------------------------------------------------------------------------|

Chorus
e|---1---------1-----1---------1-------0---------0-------0---------0---------|
B|---------1---------------1-----------------1-----------------1-------------|
G|-------2-------2-------2-------2---------0--------0--------0-------0-------|x2
D|---0-----------------------------------------------------------------------|
A|-------------------0-----------------3-------------------------------------|
E|-------------------------------------------------------3-------------------|

e|---1----------1------1----------1-------0---------0-------0----------------|
B|----------3-----------------3-----------------1-----------1----------------|
G|--------3-------3---------3-------3---------0--------0---------------------|
D|---3-----------------3------------------2-----------------2----------------|
A|---------------------------------------------------------------------------|
E|---------------------------------------------------------------------------|

Repeat Intro

Verse 2
e|---1---------1-------1--------1------1----------1-------1----------1-------|
B|---------1-----------------1----------------1------------------1-----------|
G|-------2-------2---------2------2---------2--------2---------2-------2-----|
D|---0-----------------0---------------0------------------0------------------|
A|---------------------------------------------------------------------------|
E|---------------------------------------------------------------------------|

e|---0--------0-------0-------------------0---------0------0------------------|
B|---------1-----------------1------------------1-----------------1-----------|
G|-------0-------0---------0------------------0-----------------0-------------|
D|--------------------2---------0h2-------------------0h2------------0---2----|
A|---3------------------------------3-----3-----------------3-----------------|
E|----------------------------------------------------------------------------|

e|---1---------1-------1--------1------1----------1-------1----------1-------|
B|---------1-----------------1----------------1------------------1-----------|
G|-------2-------2---------2------2---------2--------2---------2-------2-----|
D|---0-----------------0---------------0------------------0------------------|
A|---------------------------------------------------------------------------|
E|---------------------------------------------------------------------------|

e|---0--------0-------0------------------0--------0----------------3p0-------|
B|---------1----------------1------------------1--------0------3/5-----------|
G|-------0----------------0--------0---------0------------0-------------0----|
D|----------------0---2--------2-3-------------------2-----------------------|
A|---3-----------------------------------3-----------------------------------|
E|---------------------------------------------------------------------------|

Pre-Chorus
e|---1---------1------1----------1------1---------1------1----------1--------|
B|---------3-----------------3----------------3-----------------3------------|
G|-------3-------3---------3-------3--------3-------3---------3-------3------|
D|---3----------------3-----------------3----------------3-------------------|
A|---------------------------------------------------------------------------|
E|---------------------------------------------------------------------------|

e|--1---------1------------1-----------0--------0----------------------------|
B|--------1--------------1-------------------1-------------------------------|
G|------2-------2----0h2------0------------0------0--------------------------|
D|--3----------------3------------3----2----------3---2----------------------|
A|---------------------------------------------------------------------------|
E|---------------------------------------------------------------------------|

Chorus
e|---1---------1-----1---------1-------0---------0-------0---------0---------|
B|---------1---------------1-----------------1-----------------1-------------|
G|-------2-------2-------2-------2---------0--------0--------0-------0-------|x2
D|---0-----------------------------------------------------------------------|
A|-------------------0-----------------3-------------------------------------|
E|-------------------------------------------------------3-------------------|

e|---1----------1------1----------1-------0---------0-------0----------------|
B|----------3-----------------3-----------------1-----------1----------------|
G|--------3-------3---------3-------3---------0--------0---------------------|
D|---3-----------------3------------------2-----------------2----------------|
A|---------------------------------------------------------------------------|
E|---------------------------------------------------------------------------|

Repeat Intro

Guitar solo 
Rhythm Chords
e|--1---------0---------1---------0---------1---------0------------------0---------|
B|--3---------1---------3---------1---------3---------1---------2--------1---------|
G|--3---------2---------3---------2---------3---------2---------2--------0---------|
D|--3---------3---------3---------3---------3---------3---------2--------2---------|
A|--1---------3---------1---------3---------1---------3---------0--------3---------|
E|------------1-------------------1-------------------1----------------------------|

Lead
e|---------------------------------------------------------------------|
B|----8b(10)br8---6-8-pb10br8-6-8---------5-6/8\6/8-5----6-5-----------|
G|--------------------------------9--------------------------7-5-------|
D|---------------------------------------------------------------------|
A|---------------------------------------------------------------------|
E|---------------------------------------------------------------------|

e|-----------------8-----------------8-10-12----13--12-----------------|
B|-----------5-6-----6/8--6-------------------------------13p10--------|
G|-------5-7-----------------------------------------------------------|
D|---7-8---------------------------------------------------------------|
A|---------------------------------------------------------------------|
E|---------------------------------------------------------------------|

e|---------------------------------------------------------------------|
B|----10pbr8--6-----6p5h6-------------5-8-5h6p5h6p5--------------------|
G|--------------------------7------------------------5-----------------|
D|------------------------------------------------------7--------------|
A|---------------------------------------------------------------------|
E|---------------------------------------------------------------------|

e|---------------------------------------------8------10-----12--------|
B|----13b15br13--10--13b-------10--------------------------------------|
G|------------------------------------------/9-----/10----/12----------|
D|---------------------------------------------------------------------|
A|---------------------------------------------------------------------|
E|---------------------------------------------------------------------|

Repeat Chorus till fade out


Lead parts
e|---------------------------------------------------------------------------|
B|-------------------13b-----------------------------------------------------|
G|------12b---12-10----------------------------------------------------------|
D|---------------------------------------------------------------------------|
A|---------------------------------------------------------------------------|
E|---------------------------------------------------------------------------|



e|------12br--10---------------------------12----------10------8-------------|
B|----------------13br---10--------------------------------------------------|
G|---------------------------------------------12-10--------9----------------|
D|---------------------------------------------------------------------------|
A|---------------------------------------------------------------------------|
E|---------------------------------------------------------------------------|



e|------------------10--8----10----------------------------------------------|
B|------------10-8------------------------------------------8b--8-6--8b------|
G|---------------------------------------------------------------------------|
D|-----10-12-----------------------------------------------------------------|
A|---------------------------------------------------------------------------|
E|---------------------------------------------------------------------------|


************************************

| /   slide up
| \   slide down
| h   hammer-on
| p   pull-off
| b   Bend
| pb  Pre-bend
| br  Bend release
| pbr Pre-bend release
| brb Bend release bend

************************************

            
            
Suggest correction
Creating personal tab
Creating personal tab
You can edit any tab online and save it as your Personal.

You can edit, replace or remove any tab part or add personal notes – all changes will be seen only by you.

Personal tabs can be accessed anytime from any device, even offline.
Learn more »
Give kudos to tab author, rate the tab!
1 2 3 4 5
comments
print report bad tab
guest
You may want to rate the tab now too:
select rating
Wanna post a correction for this tab? Suggest correction