Oops, an error
Loading. Please wait.

Cámara De Faltas Bass Tab

version 1
version 1

Whole song

Interactive

1,930 views 12 this week
no commentswrite comment
1 2 3 4 5
please rate
add to favorites
launch autoscroll
font size
0
reset
guitar tuner
Tab Pro tools
  • play this tab
  • loop segment
  • change instrument
  • show fretboard
  • metronome
×
Best way to learn
"Cámara De Faltas"
Autoscroll
slow
fast
+/-
esc
set tempo
stop
Contributor
Difficulty
novice
--## Tablatura de mi versión para Cámara de Faltas de Enjambre,
por Fernando Arroyo, checa mi
cover, para mayor referencia de la tab, en youtube,
http://youtu.be/K-kOweH58Bg
además, podrás bajar los backing tracks para practicar :)
http://www.facebook.com/fergto78
--##

-Afinación Estándar

G|--------|------------------------------------|
D|--------|.-----------------------------------|
A|-9~~~--7|.-9-9-9-9-9-9-11h12-----------------|
E|--------|--------------------7-7-7-7-7-7-7-7-|

----------------------------------|
---------------------------------.|3 tiempos
-7-7-7-7-7-7-7-7-----------------.|
-----------------5-5-5-5-9-9-9-9--|

|--------------------------------------------------|
|--------------------------------------------------|
|9-9-9-9-9-9-11h12-----------------7-7-7-7-7-7-7-7-|
|------------------7-7-7-7-7-7-7-7-----------------|

------------------|
-7-7-7-7---6---6--|
------------------|
---------9---9----|

|--------------------------------------------------|
|--------------------------------------------------|
|9-9-9-9-9-9-11h12-----------------7-7-7-7-7-7-7-7-|
|------------------7-7-7-7-7-7-7-7-----------------|

-------------------------|
-------------------------|
-11-11-11-11-11-11-11-11-|
-------------------------|

|-----------------------|
|.---------------------.|
|.-12-12-12-9-9-9------.|2 tiempos
|-----------------12-12-|

|-----------------------|
|.----------------11-11.|
|.-9-9-9-12-12-12------.|2 tiempos
|-----------------------|

|-----------------------|
|.---------------------.|
|.-11-11-11-9-9-9------.|2 tiempos
|-----------------12-12-|

|---------------------------|
|.-11-11-11-14-14-14-------.|
|.-------------------11-11-.|2 tiempos
|---------------------------|

|----------------------------------------|
|---------------------------6h7----------|
|-9~~~-9h11h12------7~~-7h9--------------|
|--------------7~~~-------------5~~-/-9~~|

|------------------------------------------|
|--------------9~~~--------------7---6---6-|
|-9~~~-9h11h12------7~~~~~~~-7h9-----------|
|----------------------------------9---9---|

|-----------------------------------|
|-----------------------------------|
|-9-9-9-9-9-9-11h12-----------------|
|-------------------7-7-7-7-7-7-7-7-|

---------------------------------|
---------------------------------|
-7-7-7-7-7-7-7-7-----------------|
-----------------5-5-5-5-9-9-9-9-|

|--------------------------------------------------|
|--------------------------------------------------|
|9-9-9-9-9-9-11h12-----------------7-7-7-7-7-7-7-7-|
|------------------7-7-7-7-7-7-7-7-----------------|

-------------------------|
-------------------------|
-11-11-11-11-11-11-11-11-|
-------------------------|

|-----------------------|
|.---------------------.|
|.-12-12-12-9-9-9------.|2 tiempos
|-----------------12-12-|

|-----------------------|
|.----------------11-11.|
|.-9-9-9-12-12-12------.|2 tiempos
|-----------------------|

|-----------------------|
|.---------------------.|
|.-11-11-11-9-9-9------.|2 tiempos
|-----------------12-12-|

|---------------------------|
|.-11-11-11-14-14-14-------.|
|.-------------------11-11-.|2 tiempos
|---------------------------|

|-----------------------|
|.---------------------.|
|.-12-12-12-9-9-9------.|2 tiempos
|-----------------12-12-|

|-----------------------|
|.----------------11-11.|
|.-9-9-9-12-12-12------.|2 tiempos
|-----------------------|

|-----------------------|
|.---------------------.|
|.-11-11-11-9-9-9------.|2 tiempos
|-----------------12-12-|

|---------------------------|
|.-11-11-11-14-14-14-------.|
|.-------------------11-11-.|2 tiempos
|---------------------------|

|----------------------|
|.-9-9-9-12-12-12-----.|
|.----------------9-9-.|2 tiempos
|----------------------|

|---------------------------|
|.-11-11-11-14-14-14-------.|
|.-------------------11-11-.|2 tiempos
|---------------------------|

|----------------------|
|.-9-9-9-12-12-12-----.|
|.----------------9-9-.|2 tiempos
|----------------------|

|---------------------------------|
|---------------------------------|
|-7-7-7-7-7-7-7-7-7-7-7-7-7-7-7-7-|
|---------------------------------|

|---------------------------------|
|.--------------------------------|
|.-9-9-9-9-9-9-9-9----------------|
|-----------------7-7-7-7-7-7-7-7-|

--------------------------------------------------|
-------------------------------------------------.|2 tiempos
-11-11-11-11-11-11-11-11-11-11-11-11-11-11-11-11-.|
--------------------------------------------------|

|---------------------------------|
|---------------------------------|
|---------------------------------|
|-7-7-7-7-7-7-7-7-7-7-7-7-7-7-7-7-|

|---------------------------------------|
|---------------------------------------|
|-7-7-7-7-7-7-7-11-11-11-11-11-11-11-11-|
|---------------------------------------|

|-----------------------|
|.---------------------.|
|.-12-12-12-9-9-9------.|2 tiempos
|-----------------12-12-|

|-----------------------|
|.----------------11-11.|
|.-9-9-9-12-12-12------.|2 tiempos
|-----------------------|

|-----------------------|
|.---------------------.|
|.-11-11-11-9-9-9------.|2 tiempos
|-----------------12-12-|

|---------------------------|
|.-11-11-11-14-14-14-------.|
|.-------------------11-11-.|2 tiempos
|---------------------------|

|-----------------------|
|.---------------------.|
|.-12-12-12-9-9-9------.|2 tiempos
|-----------------12-12-|

|-----------------------|
|.----------------11-11.|
|.-9-9-9-12-12-12------.|2 tiempos
|-----------------------|

|-----------------------|
|.---------------------.|
|.-11-11-11-9-9-9------.|2 tiempos
|-----------------12-12-|

|---------------------------|
|.-11-11-11-14-14-14-------.|
|.-------------------11-11-.|2 tiempos
|---------------------------|

Outro

|----8 veces----|----|
|.-------------.|----|
|.-12-12-12-12-.|-12-|
|---------------|----|
comments
We did not receive enough feedback on this tab! Please rate:
print report bad tab
1 2 3 4 5
I want to post or [tab]
guest
You may want to rate the tab now too:
select rating
Please do not post tabs as comments. Select "correction" instead!