Oops, an error
Loading. Please wait.

Enemigo Bass Tab

version 1
version 1

Whole song

Interactive

2,972 views 3 this week
no commentswrite comment
1 2 3 4 5
please rate
add to favorites
launch autoscroll
font size
0
reset
guitar tuner
Autoscroll
slow
fast
+/-
esc
set tempo
stop
Help us to improve Ultimate-Guitar.com Take our survey!
×
Author
Difficulty
novice
Enjambre – Enemigo

-------## Tablatura para BAJO de mi versión para enemigo de enjambre,
por Fernando Arroyo, checa mi
cover, para mayor referencia de la tab, en
http://www.youtube.com/watch?v=GRBtP85QaiY&feature=colike
Comentarios o sugerencias a fergto78@hotmail.com
http://www.facebook.com/fergto78
http://twitter.com/#!/fergto78 -------##

Afinación Estándar

Intro y verso 1:

B|--------|---(4 tiempos)----|---------------(3 tiempos)-------------------|
G|--------|.---------------.-|.--------------------------------------------|
A|-7---7--|.---7---7----7--.-|.---7------7----7---7---5---5----5----6---6--|
E|---7----|--7---7----7------|--7---7--5---5----5-------5----5---5----5----|

----------------|
---------------.|
---6----7---7--.|
-5---5----7-----|

Puente:

|------------------------------------------|
|-----------------------5---5------5--5--5-|
|---7------7----7---7----------------------|
|-7---7--5---5----5------------------------|

Pre coro 1:                 fergto78

|----------------------------------------------------------|
|--------7------------11-------------------------11--------|
|-5--5-5---5---9--9-9----9----------9-----9--9-9----9------|
|----------------------------7--7-7---7-----------------5--|

|----------------------------------------------------------|
|--------7------------11-------------------------11--------|
|-5--5-5---5---9--9-9----9----------9-----9--9-9----9---8--|
|----------------------------7--7-7---7--------------------|

Puente Pre coro 1:

|-----------------------------------------------------------|
|-----------------------------------------------------------|
|-7---7-7--7--7---7-7--7---10---10-10--10--10---10-10---10--|
|-----------------------------------------------------------|

-----------------------|
-----------------------|
-5---5--5---6---6—6----|
-----------------------|

Coro 1:

|-----------------------------------------------------------------|
|-----------------------------------------------------------------|
|---------------------------------5-5-5-5-5-5-5-5-2-2-2-2-2-2-2-2-|
|-3-3-3-3-3-3-3-3-5-5-5-5-5-5-5-5---------------------------------|

--------------------|
--------------------|
--------------------|
-3-3-3-3-3-3-3-3-5/-|

Solo

|---------------------------------------------------------|
|---------------------------------------------------------|
|-7---7----7------7----7---7---5---5----5----6---6----6---|
|---7----7---7--5---5----5-------5----5---5----5----5---5-|

-----------------------------------------------|
-----------------------------------------------|
-7---7----7------7----7---7---5---5----5----6--|
---7----7---7--5---5----5-------5----5---5-----|

Verso 2:

|----------------------------------------------------------------|
|----------------------------------------------------------------|
|-7---7----7------7----7---7---5---5----5----6---6----6----7---7-|
|---7----7---7--5---5----5-------5----5---5----5----5---5----7---|

Puente:
|------------------------------------------|
|-----------------------5---5------5--5--5-|
|---7------7----7---7----------------------|
|-7---7--5---5----5------------------------|

Pre coro 2:

|----------------------------------------------------------|
|--------7------------11-------------------------11--------|
|-5--5-5---5---9--9-9----9----------9-----9--9-9----9------|
|----------------------------7--7-7---7-----------------5--|

|----------------------------------------------------------|
|--------7------------11-------------------------11--------|
|-5--5-5---5---9--9-9----9----------9-----9--9-9----9---8--|
|----------------------------7--7-7---7--------------------|

Puente Pre coro 2:

|-----------------------------------------------------------|
|-----------------------------------------------------------|
|-7---7-7--7--7---7-7--7---10---10-10--10--10---10-10---10--|
|-----------------------------------------------------------|

-----------------------|
-----------------------|
-5---5--5---6---6—6----|
-----------------------|

Coro 2:

|-----------------------------------------------------------------|
|-----------------------------------------------------------------|
|---------------------------------5-5-5-5-5-5-5-5-2-2-2-2-2-2-2-2-|
|-3-3-3-3-3-3-3-3-5-5-5-5-5-5-5-5---------------------------------|

--------------------|
--------------------|
--------------------|
-3-3-3-3-3-3-3-3-5/-|                         fergto78

Puente (entra en el quinto tiempo después de las guitarras armonizadas):

|----------------------------------------------------------|
|--------7------------11-------------------------11--------|
|-5--5-5---5---9--9-9----9----------9-----9--9-9----9------|
|----------------------------7--7-7---7-----------------5--|

|----------------------------------------------------------|
|--------7------------11-------------------------11--------|
|-5--5-5---5---9--9-9----9----------9-----9--9-9----9---8--|
|----------------------------7--7-7---7--------------------|

Puente Pre coro 3:

|-----------------------------------------------------------|
|-----------------------------------------------------------|
|-7---7-7--7--7---7-7--7---10---10-10--10--10---10-10---10--|
|-----------------------------------------------------------|

-----------------------|
-----------------------|
-5---5--5---6---6—6----|
-----------------------|

Coro final

|---------------------(2 tiempos)-----------------------------------|
|.-----------------------------------------------------------------.|
|.---------------------------------5-5-5-5-5-5-5-5-2-2-2-2-2-2-2-2-.|
|--3-3-3-3-3-3-3-3-5-5-5-5-5-5-5-5----------------------------------|

Outro

|--------------------------------------------|
|--------------------------------------------|
|------------------------5---5----5----------|
|--3-3-3-3-3-3-3-3-5/------5----5---5/---10--|
Suggest correction
Give kudos to tab author, rate the tab!
1 2 3 4 5
comments
print report bad tab
guest
You may want to rate the tab now too:
select rating
Please do not post tabs as comments. Select "correction" instead!