Oops, an error
Loading. Please wait.

Espalda De Bronce Tab

3,876 views 1 this week
no commentswrite comment
1 2 3 4 5
please rate
add to favorites
launch autoscroll
font size
0
reset
how to read this tab
guitar tuner
Tab Pro tools
  • play this tab
  • loop segment
  • change instrument
  • show fretboard
  • metronome
×
Best way to learn
"Espalda De Bronce"
Autoscroll
slow
fast
+/-
esc
set tempo
stop
Contributor
Difficulty
novice
checa como se escucha: http://www.youtube.com/watch?v=TDf5IGzdfo8

Guitarra 1

                                  Crepusculo has llegado y...
                                     S E  Q    S S E  Q    S  
E||-------|-------|-------|-------|-------1----L------1----L-|
B||-------|-------|-------|-------|--1-2---------1-2---------|
G||-------|-------|-------|-------|--------------------------|
D||-------|-------|-------|-------|--------------------------|
A||-------|-------|-------|-------|--------------------------|
E||-------|-------|-------|-------|--------------------------|


  S E  Q    S S E  Q    S    S E  Q    S S E  Q    S  
-------2-----------2------|--------------------------|
--1-2---------1-2---------|--1-2--4------1-2--4------|
--------------------------|--------------------------|
--------------------------|--------------------------|
--------------------------|--------------------------|
--------------------------|--------------------------|


  S E  Q    S S E  E  E  S    S E  Q    S S E  Q    S  
-------1-------------------|-------1----L------1----L-|
--1-2-------1-2-1----------|--1-2---------1-2---------|
-------------------2-------|--------------------------|
----------------------4--3-|--------------------------|
---------------------------|--------------------------|
---------------------------|--------------------------|


  S E  Q    S S E  Q    S    S E  Q    S S E  Q    S    S E  E  S S S H         
-------2-------2------|--------------------------|-------------------------|
--1-2-----1-2---------|--1-2--4------1-2--4------|--1-2--4----1-2-1--------|
----------------------|--------------------------|-----------------------
----------------------|--------------------------|-------------------------|
----------------------|--------------------------|-------------------------|
----------------------|--------------------------|-------------------------|


  S S S E  Q    S S S E  E     S S S S E  E  S S S S E  S S  
----------------------------|-------------------------------|
--2-2-2---------2-2-2-------|-------------------------------|
--------1-------------1-----|--5---L------------------------|
-----------3-------------3--|--------8-L--3--------3-4--3-4-|
----------------------------|-------------------------------|
----------------------------|-------------------------------|


  Q    Q    Q    T T S S S    S S S S  S  S  S  S  S  S  S  Q    S  
---------------------------|---------------------------------------|
---------------------------|---------------------------------------|
--1------------------------|--2---5---11-11-11-11-11-11-11-11------|
-------4-----------3-4-3-4-|----3---3------------------------------|
------------4--------------|---------------------------------------|
---------------------------|---------------------------------------|


  S S S E  Q    S S S E  E     S S S S E  E  S S S S E  S S  
----------------------------|-------------------------------|
--2-2-2---------2-2-2-------|-------------------------------|
--------1-------------1-----|--5---L------------------------|
-----------3-------------3--|--------8-L--3--------3-4--3-4-|
----------------------------|-------------------------------|
----------------------------|-------------------------------|


  Q    Q    Q    T T S S S    S S S S  S  S  S  S  S  S  S  Q    S  
---------------------------|---------------------------------------|
---------------------------|---------------------------------------|
--1------------------------|--2---5---11-11-11-11-11-11-11-11------|
-------4-----------3-4-3-4-|----3---3------------------------------|
------------4--------------|---------------------------------------|
---------------------------|---------------------------------------|


  S S S S S S S S S S S S S S S S    S S S S S S S S S S S S S S S S  
----------1---------------1-------|----------2---------------2-------|
--4-2-1-2---2-1-2-4-2-1-2---2-1-2-|--4-2-1-2---2-1-2-4-2-1-2---2-1-2-|
----------------------------------|----------------------------------|
----------------------------------|----------------------------------|
----------------------------------|----------------------------------|
----------------------------------|----------------------------------|


  S S S S S S S S S S S S S S S S    S S S S S S S S S E  E  E  S  
--1---------------1-------------1-|----------1--------------------|
----2-1-2-4-2-1-2---2-1-2-4-2-1---|--4-2-1-2---2-1-2-2-1----------|
----------------------------------|-----------------------2-------|
----------------------------------|--------------------------4--3-|
----------------------------------|-------------------------------|
----------------------------------|-------------------------------|


  S E  Q    S S E  Q    S    S E  Q    S S E  Q    S  
-------1----L------1----L-|-------2-----------2------|
--1-2---------1-2---------|--1-2---------1-2---------|
--------------------------|--------------------------|
--------------------------|--------------------------|
--------------------------|--------------------------|
--------------------------|--------------------------|


  S E  Q    S S E  Q    S    S E  Q    S S E  E  E  S  
--------------------------|-------1-------------------|
--1-2--4------1-2--4------|--1-2-------1-2-1----------|
--------------------------|-------------------2-------|
--------------------------|----------------------4--3-|
--------------------------|---------------------------|
--------------------------|---------------------------|


  S E  Q    S S E  Q    S    S E  Q    S S E  Q    S  
-------1----L------1----L-|-------2-----------2------|
--1-2---------1-2---------|--1-2---------1-2---------|
--------------------------|--------------------------|
--------------------------|--------------------------|
--------------------------|--------------------------|
--------------------------|--------------------------|


  S E  Q    S S E  Q    S    S E  E  S S S H         
--------------------------|-------------------------|
--1-2--4------1-2--4------|--1-2--4----1-2-1--------|
--------------------------|-------------------------|
--------------------------|-------------------------|
--------------------------|-------------------------|
--------------------------|-------------------------|


  S S S E  Q    S S S E  E     S S S S E  E  S S S S E  S S  
----------------------------|-------------------------------|
--2-2-2---------2-2-2-------|-------------------------------|
--------1-------------1-----|--5---L------------------------|
-----------3-------------3--|--------8-L--3--------3-4--3-4-|
----------------------------|-------------------------------|
----------------------------|-------------------------------|


  Q    Q    Q    T T S S S    S S S S  S  S  S  S  S  S  S  Q    S  
---------------------------|---------------------------------------|
---------------------------|---------------------------------------|
--1------------------------|--2---5---11-11-11-11-11-11-11-11------|
-------4-----------3-4-3-4-|----3---3------------------------------|
------------4--------------|---------------------------------------|
---------------------------|---------------------------------------|


  S S S E  Q    S S S E  E     S S S S E  E  S S S S E  S S  
----------------------------|-------------------------------|
--2-2-2---------2-2-2-------|-------------------------------|
--------1-------------1-----|--5---L------------------------|
-----------3-------------3--|--------8-L--3--------3-4--3-4-|
----------------------------|-------------------------------|
----------------------------|-------------------------------|


  Q    Q    Q    T T S S S    S S S S  S  S  S  S  S  S  S  Q    S  
---------------------------|---------------------------------------|
---------------------------|---------------------------------------|
--1------------------------|--2---5---11-11-11-11-11-11-11-11------|
-------4-----------3-4-3-4-|----3---3------------------------------|
------------4--------------|---------------------------------------|
---------------------------|---------------------------------------|


  E  E  S E  E  E  E  E     S S S S S S S S S S S S S S S S  
-------------------------|----------------------------------|
-------------------------|--1-1-x-x-1-1-x-x-1-1-x-x-1-1-x-x-|
--3--3--3-3--3--7--8--9--|--2-2-x-x-2-2-x-x-2-2-x-x-2-2-x-x-|
--3--3--3-3--3--7--8--9--|--3-3-x-x-3-3-x-x-3-3-x-x-3-3-x-x-|
--1--1--1-1--1--5--6--7--|--3-3-x-x-3-3-x-x-3-3-x-x-3-3-x-x-|
-------------------------|----------------------------------|


  S S S S S S S S S S S S S S S S    S S S S S S S S S S S S S S S S  
----------------------------------|----------------------------------|
--2-2-x-x-2-2-x-x-2-2-x-x-2-2-x-x-|--1-1-x-x-1-1-x-x-1-1-x-x-1-1-x-x-|
--3-3-x-x-3-3-x-x-3-3-x-x-3-3-x-x-|--2-2-x-x-2-2-x-x-2-2-x-x-2-2-x-x-|
--3-3-x-x-3-3-x-x-3-3-x-x-3-3-x-x-|--3-3-x-x-3-3-x-x-3-3-x-x-3-3-x-x-|
--1-1-x-x-1-1-x-x-1-1-x-x-1-1-x-x-|--3-3-x-x-3-3-x-x-3-3-x-x-3-3-x-x-|
----------------------------------|----------------------------------|


  S S S S S S S S S S S S S S S S    E  E  E  E  E  E   E   E   
----------------------------------|----------------------------|
--2-2-x-x-2-2-x-x-2-2-x-x-2-2-x-x-|----------------------------|
--3-3-x-x-3-3-x-x-3-3-x-x-3-3-x-x-|----------------------------|
--3-3-x-x-3-3-x-x-3-3-x-x-3-3-x-x-|-----3--6--4--3-----11--10--|
--1-1-x-x-1-1-x-x-1-1-x-x-1-1-x-x-|--4--------------4----------|
----------------------------------|----------------------------|


   S  S  S  S  S  Q     S  S  S  S  S  E   
------------------------------------------|
------------------------------------------|
------------------------------------------|
--10-11-10-11-10-13----13-13-11-11-10-10--|
------------------------------------------|
------------------------------------------|


   S  S  S  S  S  S S S  S  Q    E  S    S S S S S S S S S S S S S S S S  
--------------------------------------|----------------------------------|
--------------------------------------|----------------------------------|
--------------------------------------|----------------------------------|
--13-13-11-11-10-10-8-8-10-10---------|------------------3-3-3-3-3-3-3-3-|
--------------------------------------|--1-1-1-1-4-4-4-4-----------------|
--------------------------------------|----------------------------------|


  S S S S S S S S S S S S S S S S    S S S S S S S S S S S S S S S S  
----------------------------------|----------------------------------|
----------------------------------|----------------------------------|
----------------------------------|----------------------------------|
------------------3-3-3-3-3-3-3-3-|------------------3-3-3-3-3-3-3-3-|
--3-3-3-3-6-6-6-6-----------------|--1-1-1-1-4-4-4-4-----------------|
----------------------------------|----------------------------------|


  S S S S S S S S S S S S S S S S    S S S S S S S S S S S S S S S S  
----------------------------------|----------------------------------|
----------------------------------|----------------------------------|
----------------------------------|----------------------------------|
----------------------------------|------------------3-3-3-3-3-3-3-3-|
--3-3-3-3-4-4-4-4-6-6-6-6-6-6-6-6-|--1-1-1-1-4-4-4-4-----------------|
----------------------------------|----------------------------------|


  S S S S S S S S S S S S S S S S    S S S S S S S S S S S S S S S S  
----------------------------------|----------------------------------|
----------------------------------|----------------------------------|
----------------------------------|----------------------------------|
------------------3-3-3-3-3-3-3-3-|------------------3-3-3-3-3-3-3-3-|
--3-3-3-3-6-6-6-6-----------------|--1-1-1-1-4-4-4-4-----------------|
----------------------------------|----------------------------------|


  S S S S S S S S S S S S S S S S    S E  Q    S S E  Q    S  
----------------------------------|-------1----L------1----L-|
----------------------------------|--1-2---------1-2---------|
----------------------------------|--------------------------|
----------------------------------|--------------------------|
--3-3-3-3-4-4-4-4-6-6-6-6-6-6-6-6-|--------------------------|
----------------------------------|--------------------------|


  S E  Q    S S E  Q    S    S E  Q    S S E  Q    S  
-------1-----------1------|-------2-----------2------|
--1-2-------2-1-2-------2-|--1-2-------2-1-2---------|
--------------------------|--------------------------|
--------------------------|--------------------------|
--------------------------|--------------------------|
--------------------------|--------------------------|


  S S S S  S  S  S  S  S  S  S  Q    S   
---------------------------------------||
---------------------------------------||
--2---5---11-11-11-11-11-11-11-11----3-||
----3---3------------------------------||
---------------------------------------||
---------------------------------------||




Duration Legend
---------------
W - whole
H - half
Q - quarter
E - 8th
S - 16th
T - 32nd
X - 64th
. - note dotted
|-n-|  - n-tuplets


Tablature Legend
----------------
L - tied note
x - dead note
g - grace note
(n) - ghost note
> - accentuded note
NH - natural harmonic
AH - artificial harmonic
TH - tapped harmonic
SH - semi harmonic
PH - pitch harmonic
h - hammer on
p - pull off
b - bend
br - bendRelease
pb - preBend
pbr - preBendRelease
brb - bendReleaseBend
\n/ - tremolo bar dip
\n - tremolo bar dive
-/n - tremolo bar Release up
/n\ - tremolo bar inverted dip
/n - tremolo bar return
-\n - tremolo bar Release down
S - shift slide
s - legato slide
/ -  slide into from below or out of upwards
\ -  slide into from above or out of downwards
~ - vibrato
W - wide vibrato
tr - trill
TP - tremolo picking
T - tapping
S - slap
P - pop
< - fade in
^ - brush up
v - brush down
comments
We did not receive enough feedback on this tab! Please rate:
print report bad tab
1 2 3 4 5
I want to post or [tab]
guest
You may want to rate the tab now too:
select rating
Please do not post tabs as comments. Select "correction" instead!