Oops, an error
Loading. Please wait.

Falacia Tab

version 1
version 1

Whole song

3,647 views 3 this week
no commentswrite comment
1 2 3 4 5
2 more votes to show rating
add to favorites
launch autoscroll
font size
0
reset
how to read this tab
guitar tuner
Autoscroll
slow
fast
+/-
esc
set tempo
stop
Help us to improve Ultimate-Guitar.com Take our survey!
×
Author
07/01/13
Aqui les dejo la tablatura de mi último cover (Falacia - Enjambre), el cual saque 
a oído, asi que si notan algun desperfecto es debido a esto.
Les dejo el link de mi cover para que vean el resultado final, espero que sea de su agrado.

Tabs 100% por Alexgm15 < En youtube    Alex1595< En ultimate guitar
Espero que les guste.

Cover:  http://www.youtube.com/watch?v=wfghqy-BsH4

Comencemos...
 
/ > Slide
h > Hammer
p > pull off 

Intro

|-13-12------------------------------|--12-10----10-12----10-12----10-12---|
|----------15--15-15-15-15-15--------|--------13-------13-------13---------|
|-------14-----14-14-14-14-14-----x2-|-------------------------------------|
|------------------------------------|-------------------------------------|
|------------------------------------|-------------------------------------|
|------------------------------------|-------------------------------------|

|----10-12-------12/15-|---------------------------------------------------|
|-14-------14-10-------|----------------------------------------12/13------|
|----------------------|-10-9-9-10-12-9-12/14-12-10-9-9-10-12-9-------13---|
|----------------------|---------------------------------------------------|
|----------------------|---------------------------------------------------|
|----------------------|---------------------------------------------------|

|-----------------------------------------------|
|-----------------------------------------------|
|-12-10-9-10-12--------------------------7/2-2--|
|---------------9-10-12-------------10-7--------|
|-----------------------10-12-13-10-------------|
|-----------------------------------------------|
                                    De un discurso...



|------5-5-5-5-5-5-5------|------|-3---------------------------------------|
|--6-5-6-6-6-6-6-6-6---x2-|--5-3-|-5--x16----------------------------------|
|------7-7-7-7-7-7-7------|------|-5---------------------------------------|
|-------------------------|------|-----------------------------------------|
|-------------------------|------|-----------------------------------------|
|-------------------------|------|-----------------------------------------|
  Tu pulgar e indice....            Costurera y reina de rameras...


|--8-8--10-10--12-12--12-12--5-5--5-5--10-10-10-10-----------|
|--8-8--12-12--13-13--14-14--6-6--6-6--12-12-12-12-----------|
|--9-9--12-12--14-14--14-14--7-7--6-6--12-12-12-12-----------|
|------------------------------------------------------------|
|------------------------------------------------------------|
|------------------------------------------------------------|
  Dices.....                        de la gracia, que ya no se...       

|-----------------------------------------------------------|--------------|
|--12----12---------17----17-20--17----17----------------17-|----15-17-----|
|-----12----9-12/16----17-----------17----14----14-17-14----|-14-------x2--|
|--------------------------------------------17-------------|--------------|
|-----------------------------------------------------------|--------------|
|-----------------------------------------------------------|--------------|
 Cuando....                       es cierto...           que temprano...

|----------15-------15-------15--------------|
|----15-------15-------15-------15-----------|
|-12----12-------12-------12-------12--------|
|--------------------------------------------|
|--------------------------------------------|
|--------------------------------------------|
 Muerto...

Solo

|---------------------------------------------------------------------------|
|---------------------------------------------------------------------------|
|-7-9-10-12-14-14-12-10-9-7-9-9-7h9p7-5-7-5-5-5-4-5-7-4-5-7/9-10-10-9h10p9--|
|---------------------------------------------------------------------------|
|---------------------------------------------------------------------------|
|---------------------------------------------------------------------------|

|------------------------------------------------------|
|------------------------------------------------------|
|-7-9-7-7-7-5-7-9-5-7-9/10-7/2-7/1---------------------|
|------------------------------------------------------|
|------------------------------------------------------|
|------------------------------------------------------|
                          Antes de haber vivido...

|---------|-------------| ***NOTA MUY IMPORTANTE: En esta parte de la canción
|---------|-------------| cada una de las notas es muda, sin embargo se tiene
|--5-7-9--|-6-7-9-------| que tocar en el traste correspondiente, tapen las 
|---------|-------------| cuerdas con la mano que sostienen la púa.
|---------|-------------| También deberán repetir cada nota tantas veces sea 
|---------|-------------| necesario, escuchen la canción o vean mi cover.
 Y hoy cuando....

|------5-5-5-5-5-5-5------|------|-3-----|----------------------------------|
|--6-5-6-6-6-6-6-6-6---x2-|--5-3-|-5--x8-|--5---5-6-3-6-8-6-5---------------|
|------7-7-7-7-7-7-7------|------|-5-----|----5-----------------------------|
|-------------------------|------|-------|----------------------------------|
|-------------------------|------|-------|----------------------------------|
|-------------------------|------|-------|----------------------------------|
     Contigo sigo arruinando...    


|--8-8--10-10--12-12--12-12--5-5--5-5--10-10-10-10-----------|
|--8-8--12-12--13-13--14-14--6-6--6-6--12-12-12-12-----------|
|--9-9--12-12--14-14--14-14--7-7--6-6--12-12-12-12-----------|
|------------------------------------------------------------|
|------------------------------------------------------------|
|------------------------------------------------------------|
  Dices.....                        de la gracia, Avisa...       

|-------------------------------------------------------------|-------------|
|--12----12---------17----17-20--17----17-------------17----17|----15-17----|
|-----12----9-12/16----17-----------17----14----14-17----17---|--14---------|
|--------------------------------------------17---------------|---------x2--|
|-------------------------------------------------------------|-------------|
|-------------------------------------------------------------|-------------|
 Cuando....                       tus muertos...           temprano...

|----------15-------15-------15--------------|
|----15-------15-------15-------15-----------|
|-12----12-------12-------12-------12--------|
|--------------------------------------------|
|--------------------------------------------|
|--------------------------------------------|
                            Y ellos te...

|-------------------------------------------------------------|-------------|
|--12----12---------17----17-20--17----17-------------17----17|----15-17----|
|-----12----9-12/16----17-----------17----14----14-17----17---|--14---------|
|--------------------------------------------17---------------|---------x2--|
|-------------------------------------------------------------|-------------|
|-------------------------------------------------------------|-------------|
 Delatar          a                      n....                  Uhh uhhh...



|----------15-------15--------------13-------13------------12------12-------|
|----15----------15----15-----13----------13----13----12--------12----12----|
|-12----12----12-----------10----10----10-----------9----9----9-------------|
|---------------------------------------------------------------------------|
|---------------------------------------------------------------------------|
|---------------------------------------------------------------------------|
Uhhh...



|--10-------13-12-10--------------------------------------------------------|
|-----12-13----------13-----------------------------------------------------|
|---------------------------------------------------------------------------|
|---------------------------------------------------------------------------|
|---------------------------------------------------------------------------|
|---------------------------------------------------------------------------|

Escuchen la canción para que le den forma a los tiempos, espero les haya servido...
Suggest correction
Give kudos to tab author, rate the tab!
1 2 3 4 5
comments
print report bad tab
guest
You may want to rate the tab now too:
select rating
Wanna post a correction for this tab? Suggest correction