Oops, an error
Loading. Please wait.

Homografobia Bass Tab

933 views 9 this week
no commentswrite comment
1 2 3 4 5
please rate
add to favorites
launch autoscroll
font size
0
reset
guitar tuner
Tab Pro tools
  • play this tab
  • loop segment
  • change instrument
  • show fretboard
  • metronome
×
Best way to learn
"Homografobia"
Autoscroll
slow
fast
+/-
esc
set tempo
stop
Contributor
Difficulty
novice
-------## Tablatura de mi versión para Homografobia de Enjambre,
por Fernando Arroyo, checa mi
cover, para mayor referencia de la tab, en youtube,
http://www.youtube.com/watch?v=8_ow61EIbSw
además, podrás bajar los backing tracks para practicar :)
Comentarios o sugerencias a fergto78@hotmail.com
http://www.facebook.com/fergto78
http://twitter.com/fergto78 -------##

Afinación Estándar

G|--------------------------------------------| 
D|--------------------------------------------|
A|--------------------------------------------|
E|-7--7-6--6-5--5-4--4-5-6--7--7-6--6-5--5-4--|

|------------------------------------------------| 
|------------------------------------------------|
|-12-12-12-12-11-11-11-11-9-9-9-9-11-11-11-11----|
|------------------------------------------------|

|------------------------------------------------| 
|------------------------------------------------|
|14-14-14-14-13-13-13-13-12-12-12-12-11-11-11-11-|
|------------------------------------------------|

|-------------------------------------------------| 
|-11-11-11-9--------------------------------------|
|------------11-9-9-9--------------------11-9-9-9-|
|---------------------12-12-12-9-9-9-12-----------|

|-------------------------------------------------| 
|-11-11-11-9--------------------------------------|
|------------11-9-9-9--------------------11-9-9-9-|
|---------------------12-12-12-9-9-9-12-----------|

|--------------------------------------------------|
|--------------------------------------------------| 
|-9h11-9---------------7-7-7h9-9-9-9-------/7-7-7--|
|--------12-9--7-7-7h9---------------5-5-5---------|

|--------------------------------------------| 
|--------------------------------------------|
|-7h9-9-9---------7-7-7h9-9-9-9--------------|
|---------7-7-7h9---------------5-5-5-5-5-5--|

|------------------------------------------------| 
|------------------------------------------------|
|-12-12-12-12-11-11-11-11-9-9-9-9-11-11-11-11----|
|------------------------------------------------|

|------------------------------------------------| 
|------------------------------------------------|
|14-14-14-14-13-13-13-13-12-12-12-12-11-11-11-11-|
|------------------------------------------------|

|-------------------------------------------------| 
|-11-11-11-9--------------------------------------|
|------------11-9-9-9--------------------11-9-9-9-|
|---------------------12-12-12-9-9-9-12-----------|

|-------------------------------------------------| 
|-11-11-11-9--------------------------------------|
|------------11-9-9-9--------------------11-9-9-9-|
|---------------------12-12-12-9-9-9-12-----------|

|--------------------------------------------------|
|--------------------------------------------------| 
|-9h11-9---------------7-7-7h9-9-9-9-------/7-7-7--|
|--------12-9--7-7-7h9---------------5-5-5---------|

|--------------------------------------------| 
|--------------------------------------------|
|-7h9-9-9---------7-7-7h9-9-9-9--8-8-8-8-8-8-|
|---------7-7-7h9----------------------------|

|---------------------------------------| 
|---------------------------------------|
|---------------------------------------|
|-7--6--5--4--4-5-6-7--7-6--6-5--5-4----|

|-------------------------------------------------| 
|-11-11-11-9--------------------------------------|
|------------11-9-9-9--------------------11-9-9-9-|
|---------------------12-12-12-9-9-9-12-----------|

|-------------------------------------------------| 
|-11-11-11-9--------------------------------------|
|------------11-9-9-9--------------------11-9-9-9-|
|---------------------12-12-12-9-9-9-12-----------|

|--------------------------------------------------|
|--------------------------------------------------| 
|-9h11-9---------------7-7-7h9-9-9-9-------/7-7-7--|
|--------12-9--7-7-7h9---------------5-5-5---------|

|--------------------------------------------| 
|--------------------------------------------|
|-7h9-9-9---------7-7-7h9-9-9-9--------------|
|---------7-7-7h9---------------5-5-5-5-5-5--|

|---------------------------------------| 
|---------------------------------------|
|---------------------------------------|
|-7--7-6--6-5~~~~~~~~~~~~~~~~~~~~~~~~~~~|
comments
We did not receive enough feedback on this tab! Please rate:
print report bad tab
1 2 3 4 5
I want to post or [tab]
guest
You may want to rate the tab now too:
select rating
Please do not post tabs as comments. Select "correction" instead!