Oops, an error
Loading. Please wait.

Madrugada Bass Tab

version 1
version 1

Whole song

Interactive

2,275 views 12 this week
no commentswrite comment
1 2 3 4 5
please rate
add to favorites
launch autoscroll
font size
0
reset
guitar tuner
Tab Pro tools
  • play this tab
  • loop segment
  • change instrument
  • show fretboard
  • metronome
×
Best way to learn
"Madrugada"
Autoscroll
slow
fast
+/-
esc
set tempo
stop
Contributor
Enjambre – Madrugada

-------## Tablatura para BAJO de mi versión para madrugada de enjambre,
por Fernando Arroyo, checa mi
cover, para mayor referencia de la tab, en
http://youtu.be/7l7msJdidFo
Comentarios o sugerencias a fergto78@hotmail.com
http://www.facebook.com/fergto78
http://twitter.com/#!/fergto78 -------##

Afinación Estándar

Verso 1
B|-------(2 tiempos)-------------|
G|.----------7--7--7------------.|
A|.-7--7--7---------------------.|
E|-------------------7--7--7-7---|

Puente 1
|-------------------------------------|
|----------7--7--7-----7---------9----|
|-7--7--7----------9--9-9-7-----9-9-0-|
|---------------------------7--7------|

|--------------------------------------------|
|----------7--7--7-----7---------------------|
|-7--7--7----------9--9-9-7-------1--4--5--7-|
|----------------------------7---------------|

Puente 2
|---------------(2 tiempos)--------------------------|
|.-0------0--1-------1---2--2-4-2------2--2-4-2-----.|
|.---0--2------0--2----------------5-2----------5-2-.|
|----------------------------------------------------|

Puente 3
|---------------(2 tiempos)----------------------------------------|
|.----------------------------------------------------------------.|
|.-5-5-5-5-5-5-5-6-6-6-6-6-6-6-7-7-7-7-7-7-7-10-10-10-10-10-10-10-.|
|------------------------------------------------------------------|


Puente 4
|------------------------|
|------------------------|
|-1--4--5--7--10--13--14-|
|------------------------|

Verso 2
|-------(2 tiempos)-------------|
|.----------7--7--7------------.|
|.-7--7--7---------------------.|
|-------------------7--7--7-7---|

Puente 5 y solo
|-------------------------------------
|.---------7--7--7-----7---------9----
|.-7--7--7---------9--9-9-7-----9-9-0-
|---------------------------7--7------
estas dos partes se repiten 3 tiempos| y finaliza así|
---------------------------|---------|---------------|
----------7--7--7-----7----|--------.|---------------|
-7--7--7----------9--9-9-7-|---9-9--.|---------------|
---------------------------|7-7-7-7--|--7-----7---7--|

Puente 6
|------------------------|
|------------------------|
|-1--4--5--7--10--13--14-|
|------------------------|

Puente 7
|---------------(2 tiempos)--------------------------|
|.-0------0--1-------1---2--2-4-2------2--2-4-2-----.|
|.---0--2------0--2----------------5-2----------5-2-.|
|----------------------------------------------------|

Puente 8
|---------------(4 tiempos)----------------------------------------|
|.----------------------------------------------------------------.|
|.-5-5-5-5-5-5-5-6-6-6-6-6-6-6-7-7-7-7-7-7-7-10-10-10-10-10-10-10-.|
|------------------------------------------------------------------|

Fin
|-----|
|-----|
|--5--|
|-----|
comments
We did not receive enough feedback on this tab! Please rate:
print report bad tab
1 2 3 4 5
I want to post or [tab]
guest
You may want to rate the tab now too:
select rating
Please do not post tabs as comments. Select "correction" instead!