Oops, an error
Loading. Please wait.

Madrugada Tab

version 1
version 1

Whole song

Interactive

2,984 views 3 this week
no commentswrite comment
1 2 3 4 5
3 more votes to show rating
add to favorites
launch autoscroll
font size
0
reset
how to read this tab
guitar tuner
Autoscroll
slow
fast
+/-
esc
set tempo
stop
Help us to improve Ultimate-Guitar.com Take our survey!
×
Author
Difficulty
novice
Guitarra 2
NH significa harmonico natural es cuando solo tocas rosas la cuerda sin presionar 
con los dedos de la mano izkierda y tocas la cuerda y cuando la tocas debe dar un 
sonido como una campanita 
                                                   NH  NH  NH  NH  NH  NH 
                                     H        E    S   S   S   S   S   S  
E||-------|-------|-------|-------|--------------------------------------|
B||-------|-------|-------|-------|--------------------------------------|
G||-------|-------|-------|-------|------------------------------<>9-<>9-|
D||-------|-------|-------|-------|----------------------<>9-<>9---------|
A||-------|-------|-------|-------|--------------<>9-<>9-----------------|
E||-------|-------|-------|-------|--------------------------------------|


  E   S  S  S  S Q     S  S  S S E     S S E   E  T T Q    S  S S  S S  
------------------------------------|----------------------------------|
------------------------------------|----------------------------------|
------------------------------------|----------------------------------|
-----12-14-12-11-9----11-12-11-9-7--|----7-9--12--9-9-9----9-12-9-12-9-|
------------------------------------|----------------------------------|
------------------------------------|----------------------------------|


  E   S  S  S  S Q     S  S  S S E   
------------------------------------|
------------------------------------|
------------------------------------|
-----12-14-12-11-9----11-12-11-9-7--|
------------------------------------|
------------------------------------|


                       NH  NH  NH  NH  NH  NH                         
  S S E   E  T T S S   S   S   S   S   S   E     Q    Q    Q    Q     
----------------------------------------------|----------------------|
----------------------------------------------|----------------------|
-------------------------------------<>9-<>9--|--7----6----4----3----|
----7-9--12--9-9-9-----------<>9-<>9----------|--7----6----4----3----|
---------------------<>9-<>9------------------|--5----4----2----1----|
----------------------------------------------|----------------------|


  E  E  S E  E  E  S E  E      E   E   S  E   E   E   S  E   E   
---------------------------|------------------------------------|
---------------------------|------------------------------------|
--7--7--7-7--8--8--8-8--8--|--12--12--12-12--11--11--11-11--11--|
--7--7--7-7--8--8--8-8--8--|--12--12--12-12--11--11--11-11--11--|
--5--5--5-5--6--6--6-6--6--|--10--10--10-10---9---9---9--9---9--|
---------------------------|------------------------------------|


  E  E  S E  E  E  S E  E      E   E   S  E   E   E   S  E   E   
---------------------------|------------------------------------|
---------------------------|------------------------------------|
--7--7--7-7--8--8--8-8--8--|--12--12--12-12--11--11--11-11--11--|
--7--7--7-7--8--8--8-8--8--|--12--12--12-12--11--11--11-11--11--|
--5--5--5-5--6--6--6-6--6--|--10--10--10-10---9---9---9--9---9--|
---------------------------|------------------------------------|


    PM PM PM PM PM PM PM PM PM PM PM PM PM PM PM  
  S S  S  S  S  S  S  S  S  S  S  S  S  S  S  S   
-------------------------------------------------|
-------7--------7-----7--------7--------7-----7--|
-------------------------------------------------|
--5-5-----5--5-----5-----6--6-----6--6-----6-----|
--5-5-----5--5-----5-----6--6-----6--6-----6-----|
-------------------------------------------------|


   PM PM PM PM PM PM PM PMPM PM  PMPM PM  PMPM  PM 
   S  S  S  S  S  S  S  S S  S   S S  S   S S   S  
--------------------------------------------------|
--------12-------12----12-------11-------11----11-|
--------------------------------------------------|
--10-10----10-10----10----9--9-----9--9-----9-----|
--10-10----10-10----10----9--9-----9--9-----9-----|
--------------------------------------------------|


  PM PM PM PM PM PM PM PM PM PM PM PM PM PM PM PM  
  S  S  S  S  S  S  S  S  S  S  S  S  S  S  S  S   
--------------------------------------------------|
--------7--------7-----7--------7--------7-----7--|
--------------------------------------------------|
--5--5-----5--5-----5-----6--6-----6--6-----6-----|
--5--5-----5--5-----5-----6--6-----6--6-----6-----|
--------------------------------------------------|


   PM PM PM PM PM PM PM PMPM PM  PMPM PM  PMPM  PM                        
   S  S  S  S  S  S  S  S S  S   S S  S   S S   S    Q    Q    Q    Q     
--------------------------------------------------|----------------------|
--------12-------12----12-------11-------11----11-|----------------------|
--------------------------------------------------|--7----6----4----3----|
--10-10----10-10----10----9--9-----9--9-----9-----|--7----6----4----3----|
--10-10----10-10----10----9--9-----9--9-----9-----|--5----4----2----1----|
--------------------------------------------------|----------------------|


  Q    Q    H                                 
---------------------|-------|-------|-------|
---------------------|-------|-------|-------|
--4----3----4--------|-------|-------|-------|
--4----3----4--------|-------|-------|-------|
--2----1----2--------|-------|-------|-------|
---------------------|-------|-------|-------|


                NH  NH  NH  NH  NH  NH                                      
  H        E    S   S   S   S   S   S    E   S  S  S  S Q     S  S  S S E   
--------------------------------------|------------------------------------|
--------------------------------------|------------------------------------|
------------------------------<>9-<>9-|------------------------------------|
----------------------<>9-<>9---------|-----12-14-12-11-9----11-12-11-9-7--|
--------------<>9-<>9-----------------|------------------------------------|
--------------------------------------|------------------------------------|


  S S E   E  T T E  S  S S  S S  E     E   S  S  S  S Q     S  S  S S E   
------------------------------------|------------------------------------|
------------------------------------|------------------------------------|
------------------------------------|------------------------------------|
----7-9--12--9-9-9--9-12-9-12-9-12--|-----12-14-12-11-9----11-12-11-9-7--|
------------------------------------|------------------------------------|
------------------------------------|------------------------------------|


                       NH  NH  NH  NH  NH  NH  
  S S E   E  T T S S   S   S   S   S   S   E   
----------------------------------------------|
----------------------------------------------|
-------------------------------------<>9-<>9--|
----7-9--12--9-9-9-----------<>9-<>9----------|
---------------------<>9-<>9------------------|
----------------------------------------------|


  E    S  E   E   E  E   E   E  S    E   S  E   E   E   E   E   S  S  S  
----------------------------------|-------------------------------------|
----------------------------------|-------------------------------------|
----------------------------------|-------------------------------------|
--5S--16-14--12--11--9--11--12----|--7--17-16--14--13--11--12--16-14-12-|
----------------------------------|-------------------------------------|
----------------------------------|-------------------------------------|


  E   S  E   E   E  E   E  E  S    E   S  E   E   E   E   E   S  S  S  
--------------------------------|-------------------------------------|
--------------------------------|-------------------------------------|
--------------------------------|-------------------------------------|
--5--16-14--12--11--9--11--7--5-|--7--17-16--14--13--11--12--16-14-12-|
--------------------------------|-------------------------------------|
--------------------------------|-------------------------------------|


   T  T  T  T  T  T  T  E   T  E   E   Q    E   
-----------------------------------------------|
------------------------------15--12--12-------|
-----------------------------------------------|
--12-12-12-12-12-12-12-16--16------------------|
-----------------------------------------------|
-----------------------------------------------|


   T  T  T  T  T  T  T  T  E   T  E   E   Q      S  
---------------------------------------------------|
---------------------------------19--16--16----\15-|
---------------------------------------------------|
--16-16-16-16-16-16-16-16-20--20-------------------|
---------------------------------------------------|
---------------------------------------------------|


   E   Q     S  E   E   E   S  S  S  
------------------------------------|
--15--12----15-12--14------15-12-15-|
-----------------------11-----------|
------------------------------------|
------------------------------------|
------------------------------------|


   E   E   Q     T  T  T  T  T  T  T  T  E  E     Q    Q    Q    Q     
-----------------------------------------------|----------------------|
--12--15--12----19-19-19-19-17-17-17-17-17-----|----------------------|
-----------------------------------------------|--7----6----4----3----|
-----------------------------------------------|--7----6----4----3----|
-----------------------------------------------|--5----4----2----1----|
-----------------------------------------------|----------------------|


  Q    Q    H           E  E  S E  E  E  S E  E   
---------------------|---------------------------|
---------------------|---------------------------|
--4----3----4--------|--7--7--7-7--8--8--8-8--8--|
--4----3----4--------|--7--7--7-7--8--8--8-8--8--|
--2----1----2--------|--5--5--5-5--6--6--6-6--6--|
---------------------|---------------------------|


   E   E   S  E   E   E   S  E   E     E  E  S E  E  E  S E  E   
------------------------------------|---------------------------|
------------------------------------|---------------------------|
--12--12--12-12--11--11--11-11--11--|--7--7--7-7--8--8--8-8--8--|
--12--12--12-12--11--11--11-11--11--|--7--7--7-7--8--8--8-8--8--|
--10--10--10-10---9---9---9--9---9--|--5--5--5-5--6--6--6-6--6--|
------------------------------------|---------------------------|


   E   E   S  E   E   E   S  E   E   
------------------------------------|
------------------------------------|
--12--12--12-12--11--11--11-11--11--|
--12--12--12-12--11--11--11-11--11--|
--10--10--10-10---9---9---9--9---9--|
------------------------------------|


    PM PM PM PM PM PM PM PM PM PM PM PM PM PM PM  
  S S  S  S  S  S  S  S  S  S  S  S  S  S  S  S   
-------------------------------------------------|
-------7--------7-----7--------7--------7-----7--|
-------------------------------------------------|
--5-5-----5--5-----5-----6--6-----6--6-----6-----|
--5-5-----5--5-----5-----6--6-----6--6-----6-----|
-------------------------------------------------|


   PM PM PM PM PM PM PM PMPM PM  PMPM PM  PMPM  PM 
   S  S  S  S  S  S  S  S S  S   S S  S   S S   S  
--------------------------------------------------|
--------12-------12----12-------11-------11----11-|
--------------------------------------------------|
--10-10----10-10----10----9--9-----9--9-----9-----|
--10-10----10-10----10----9--9-----9--9-----9-----|
--------------------------------------------------|


  PM PM PM PM PM PM PM PM PM PM PM PM PM PM PM PM  
  S  S  S  S  S  S  S  S  S  S  S  S  S  S  S  S   
--------------------------------------------------|
--------7--------7-----7--------7--------7-----7--|
--------------------------------------------------|
--5--5-----5--5-----5-----6--6-----6--6-----6-----|
--5--5-----5--5-----5-----6--6-----6--6-----6-----|
--------------------------------------------------|


   PM PM PM PM PM PM PM PMPM PM  PMPM PM  PMPM  PM 
   S  S  S  S  S  S  S  S S  S   S S  S   S S   S  
--------------------------------------------------|
--------12-------12----12-------11-------11----11-|
--------------------------------------------------|
--10-10----10-10----10----9--9-----9--9-----9-----|
--10-10----10-10----10----9--9-----9--9-----9-----|
--------------------------------------------------|


  S S S S S S S S S S S S S S S S  
----------------------------------|
--6-6-6-6-6-6-6-6-7-7-7-7-7-7-7-7-|
--7-7-7-7-7-7-7-7-8-8-8-8-8-8-8-8-|
--7-7-7-7-7-7-7-7-8-8-8-8-8-8-8-8-|
--5-5-5-5-5-5-5-5-6-6-6-6-6-6-6-6-|
----------------------------------|


   S  S  S  S  S  S  S  S  S  S  S  S  S  S  S  S  
--------------------------------------------------|
--11-11-11-11-11-11-11-11-10-10-10-10-10-10-10-10-|
--12-12-12-12-12-12-12-12-11-11-11-11-11-11-11-11-|
--12-12-12-12-12-12-12-12-11-11-11-11-11-11-11-11-|
--10-10-10-10-10-10-10-10--9--9--9--9--9--9--9--9-|
--------------------------------------------------|


  S S S S S S S S S S S S S S S S  
----------------------------------|
--6-6-6-6-6-6-6-6-7-7-7-7-7-7-7-7-|
--7-7-7-7-7-7-7-7-8-8-8-8-8-8-8-8-|
--7-7-7-7-7-7-7-7-8-8-8-8-8-8-8-8-|
--5-5-5-5-5-5-5-5-6-6-6-6-6-6-6-6-|
----------------------------------|


   S  S  S  S  S  S  S  S  S  S  S  S  S  S  S  S    W                   
--------------------------------------------------|--2~----------------||
--11-11-11-11-11-11-11-11-11-11-11-11-11-11-11-11-|--3-----------------||
--12-12-12-12-12-12-12-12-12-12-12-12-12-12-12-12-|--2-----------------||
--12-12-12-12-12-12-12-12-12-12-12-12-12-12-12-12-|--------------------||
--10-10-10-10-10-10-10-10-10-10-10-10-10-10-10-10-|--------------------||
--------------------------------------------------|--------------------||




Duration Legend
---------------
W - whole
H - half
Q - quarter
E - 8th
S - 16th
T - 32nd
X - 64th
. - note dotted
|-n-|  - n-tuplets


Tablature Legend
----------------
L - tied note
x - dead note
g - grace note
(n) - ghost note
> - accentuded note
NH - natural harmonic
AH - artificial harmonic
TH - tapped harmonic
SH - semi harmonic
PH - pitch harmonic
h - hammer on
p - pull off
b - bend
br - bendRelease
pb - preBend
pbr - preBendRelease
brb - bendReleaseBend
\n/ - tremolo bar dip
\n - tremolo bar dive
-/n - tremolo bar Release up
/n\ - tremolo bar inverted dip
/n - tremolo bar return
-\n - tremolo bar Release down
S - shift slide
s - legato slide
/ -  slide into from below or out of upwards
\ -  slide into from above or out of downwards
~ - vibrato
W - wide vibrato
tr - trill
TP - tremolo picking
T - tapping
S - slap
P - pop
< - fade in
^ - brush up
v - brush down
Suggest correction
Give kudos to tab author, rate the tab!
1 2 3 4 5
comments
print report bad tab
guest
You may want to rate the tab now too:
select rating
Wanna post a correction for this tab? Suggest correction