Oops, an error
Loading. Please wait.

Madrugada Tab

version 2
version 2

Whole song

Interactive

2,916 views 1 this week
no commentswrite comment
1 2 3 4 5
please rate
add to favorites
launch autoscroll
font size
0
reset
how to read this tab
guitar tuner
Tab Pro tools
  • play this tab
  • loop segment
  • change instrument
  • show fretboard
  • metronome
Autoscroll
slow
fast
+/-
esc
set tempo
stop
Contributor
checa como se escucha: http://www.youtube.com/watch?v=AH4oR2vgZcA

             E  S E  S S S E  S E  S S S    E  S E  S S S H         
E||-------|--0--0-0--0-0-0-0--0-0--0-0-0-|-------------------------|
B||-------|--0--0-0--0-0-0-2--2-2--2-2-2-|--3--3-3--3-3-3-3--------|
G||-------|--0--0-0--0-0-0-2--2-2--2-2-2-|--4--4-4--4-4-4-4--------|
D||-------|--2--2-2--2-2-2-2--2-2--2-2-2-|--4--4-4--4-4-4-4--------|
A||-------|--2--2-2--2-2-2---------------|--2--2-2--2-2-2-2--------|
E||-------|------------------------------|-------------------------|


  E  S E  S S S E  S E  S S S    E  S E  S S S H         
--0--0-0--0-0-0-0--0-0--0-0-0-|-------------------------|
--0--0-0--0-0-0-2--2-2--2-2-2-|--3--3-3--3-3-3-3--------|
--0--0-0--0-0-0-2--2-2--2-2-2-|--4--4-4--4-4-4-4--------|
--2--2-2--2-2-2-2--2-2--2-2-2-|--4--4-4--4-4-4-4--------|
--2--2-2--2-2-2---------------|--2--2-2--2-2-2-2--------|
------------------------------|-------------------------|


  E  S E  S S S E  S E  S S S    E  S E  S S S E  S E  S S S  
--0--0-0--0-0-0-0--0-0--0-0-0-|----------------0--0-0--0-0-0-|
--0--0-0--0-0-0-2--2-2--2-2-2-|----------------3--3-3--3-3-3-|
--0--0-0--0-0-0-2--2-2--2-2-2-|----------------4--4-4--4-4-4-|
--2--2-2--2-2-2-2--2-2--2-2-2-|--4--4-4--4-4-4-4--4-4--4-4-4-|
--2--2-2--2-2-2---------------|--4--4-4--4-4-4-2--2-2--2-2-2-|
------------------------------|--2--2-2--2-2-2---------------|


  E  S E  S S S E  S E  S S S    E  S E  S S S E  S E  S S S  
--0--0-0--0-0-0-0--0-0--0-0-0-|----------------0--0-0--0-0-0-|
--0--0-0--0-0-0-2--2-2--2-2-2-|----------------3--3-3--3-3-3-|
--0--0-0--0-0-0-2--2-2--2-2-2-|----------------4--4-4--4-4-4-|
--2--2-2--2-2-2-2--2-2--2-2-2-|--4--4-4--4-4-4-4--4-4--4-4-4-|
--2--2-2--2-2-2---------------|--4--4-4--4-4-4-2--2-2--2-2-2-|
------------------------------|--2--2-2--2-2-2---------------|


  Q    Q    Q    Q       E  E  S E  E  E  S E  E   
----------------------|---------------------------|
----------------------|---------------------------|
--7----6----4----3----|--7--7--7-7--8--8--8-8--8--|
--7----6----4----3----|--7--7--7-7--8--8--8-8--8--|
--5----4----2----1----|--5--5--5-5--6--6--6-6--6--|
----------------------|---------------------------|


   E   E   S  E   E   E   S  E   E     E  E  S E  E  E  S E  E   
------------------------------------|---------------------------|
------------------------------------|---------------------------|
--12--12--12-12--11--11--11-11--11--|--7--7--7-7--8--8--8-8--8--|
--12--12--12-12--11--11--11-11--11--|--7--7--7-7--8--8--8-8--8--|
--10--10--10-10---9---9---9--9---9--|--5--5--5-5--6--6--6-6--6--|
------------------------------------|---------------------------|


   E   E   S  E   E   E   S  E   E     E  E  S E  E  E  S E  E   
------------------------------------|---------------------------|
------------------------------------|---------------------------|
--12--12--12-12--11--11--11-11--11--|--7--7--7-7--8--8--8-8--8--|
--12--12--12-12--11--11--11-11--11--|--7--7--7-7--8--8--8-8--8--|
--10--10--10-10---9---9---9--9---9--|--5--5--5-5--6--6--6-6--6--|
------------------------------------|---------------------------|


   E   E   S  E   E   E   S  E   E     E  E  S E  E  E  S E  E   
------------------------------------|---------------------------|
------------------------------------|---------------------------|
--12--12--12-12--11--11--11-11--11--|--7--7--7-7--8--8--8-8--8--|
--12--12--12-12--11--11--11-11--11--|--7--7--7-7--8--8--8-8--8--|
--10--10--10-10---9---9---9--9---9--|--5--5--5-5--6--6--6-6--6--|
------------------------------------|---------------------------|


   E   E   S  E   E   E   S  E   E     Q    Q    Q    Q     
------------------------------------|----------------------|
------------------------------------|----------------------|
--12--12--12-12--11--11--11-11--11--|--7----6----4----3----|
--12--12--12-12--11--11--11-11--11--|--7----6----4----3----|
--10--10--10-10---9---9---9--9---9--|--5----4----2----1----|
------------------------------------|----------------------|


  Q    Q    H           E  S E  S S S E  S E  S S S    E  S E  S S S H         
---------------------|--0--0-0--0-0-0-0--0-0--0-0-0-|-------------------------|
---------------------|--0--0-0--0-0-0-2--2-2--2-2-2-|--3--3-3--3-3-3-3--------|
--4----3----4--------|--0--0-0--0-0-0-2--2-2--2-2-2-|--4--4-4--4-4-4-4--------|
--4----3----4--------|--2--2-2--2-2-2-2--2-2--2-2-2-|--4--4-4--4-4-4-4--------|
--2----1----2--------|--2--2-2--2-2-2---------------|--2--2-2--2-2-2-2--------|
---------------------|------------------------------|-------------------------|


  E  S E  S S S E  S E  S S S    E  S E  S S S E  S E  S S S  
--0--0-0--0-0-0-0--0-0--0-0-0-|----------------0--0-0--0-0-0-|
--0--0-0--0-0-0-2--2-2--2-2-2-|----------------3--3-3--3-3-3-|
--0--0-0--0-0-0-2--2-2--2-2-2-|----------------4--4-4--4-4-4-|
--2--2-2--2-2-2-2--2-2--2-2-2-|--4--4-4--4-4-4-4--4-4--4-4-4-|
--2--2-2--2-2-2---------------|--4--4-4--4-4-4-2--2-2--2-2-2-|
------------------------------|--2--2-2--2-2-2---------------|


  E  S E  S S S E  S E  S S S    E  S E  S S S E  S E  S S S  
--0--0-0--0-0-0-0--0-0--0-0-0-|----------------0--0-0--0-0-0-|
--0--0-0--0-0-0-2--2-2--2-2-2-|----------------3--3-3--3-3-3-|
--0--0-0--0-0-0-2--2-2--2-2-2-|----------------4--4-4--4-4-4-|
--2--2-2--2-2-2-2--2-2--2-2-2-|--4--4-4--4-4-4-4--4-4--4-4-4-|
--2--2-2--2-2-2---------------|--4--4-4--4-4-4-2--2-2--2-2-2-|
------------------------------|--2--2-2--2-2-2---------------|


  E  S E  S S S E  S E  S S S    E  S E  S S S E  S E  S S S  
--0--0-0--0-0-0-0--0-0--0-0-0-|----------------0--0-0--0-0-0-|
--0--0-0--0-0-0-2--2-2--2-2-2-|----------------3--3-3--3-3-3-|
--0--0-0--0-0-0-2--2-2--2-2-2-|----------------4--4-4--4-4-4-|
--2--2-2--2-2-2-2--2-2--2-2-2-|--4--4-4--4-4-4-4--4-4--4-4-4-|
--2--2-2--2-2-2---------------|--4--4-4--4-4-4-2--2-2--2-2-2-|
------------------------------|--2--2-2--2-2-2---------------|


  E  S E  S S S E  S E  S S S    E  S E  S S S E  S E  S S S  
--0--0-0--0-0-0-0--0-0--0-0-0-|----------------0--0-0--0-0-0-|
--0--0-0--0-0-0-2--2-2--2-2-2-|----------------3--3-3--3-3-3-|
--0--0-0--0-0-0-2--2-2--2-2-2-|----------------4--4-4--4-4-4-|
--2--2-2--2-2-2-2--2-2--2-2-2-|--4--4-4--4-4-4-4--4-4--4-4-4-|
--2--2-2--2-2-2---------------|--4--4-4--4-4-4-2--2-2--2-2-2-|
------------------------------|--2--2-2--2-2-2---------------|


  E  S E  S S S E  S E  S S S    E  S E  S S S E  S E  S S S  
--0--0-0--0-0-0-0--0-0--0-0-0-|----------------0--0-0--0-0-0-|
--0--0-0--0-0-0-2--2-2--2-2-2-|----------------3--3-3--3-3-3-|
--0--0-0--0-0-0-2--2-2--2-2-2-|----------------4--4-4--4-4-4-|
--2--2-2--2-2-2-2--2-2--2-2-2-|--4--4-4--4-4-4-4--4-4--4-4-4-|
--2--2-2--2-2-2---------------|--4--4-4--4-4-4-2--2-2--2-2-2-|
------------------------------|--2--2-2--2-2-2---------------|


  E  S E  S S S E  S E  S S S    E  S E  S S S E  S E  S S S  
--0--0-0--0-0-0-0--0-0--0-0-0-|----------------0--0-0--0-0-0-|
--0--0-0--0-0-0-2--2-2--2-2-2-|----------------3--3-3--3-3-3-|
--0--0-0--0-0-0-2--2-2--2-2-2-|----------------4--4-4--4-4-4-|
--2--2-2--2-2-2-2--2-2--2-2-2-|--4--4-4--4-4-4-4--4-4--4-4-4-|
--2--2-2--2-2-2---------------|--4--4-4--4-4-4-2--2-2--2-2-2-|
------------------------------|--2--2-2--2-2-2---------------|


  E  S E  S S S E  S E  S S S    E  S E  S S S E  S E  S S S  
--0--0-0--0-0-0-0--0-0--0-0-0-|----------------0--0-0--0-0-0-|
--0--0-0--0-0-0-2--2-2--2-2-2-|----------------3--3-3--3-3-3-|
--0--0-0--0-0-0-2--2-2--2-2-2-|----------------4--4-4--4-4-4-|
--2--2-2--2-2-2-2--2-2--2-2-2-|--4--4-4--4-4-4-4--4-4--4-4-4-|
--2--2-2--2-2-2---------------|--4--4-4--4-4-4-2--2-2--2-2-2-|
------------------------------|--2--2-2--2-2-2---------------|


  Q    Q    Q    Q       Q    Q    H           E  E  S E  E  E  S E  E   
----------------------|---------------------|---------------------------|
----------------------|---------------------|---------------------------|
--7----6----4----3----|--4----3----4--------|--7--7--7-7--8--8--8-8--8--|
--7----6----4----3----|--4----3----4--------|--7--7--7-7--8--8--8-8--8--|
--5----4----2----1----|--2----1----2--------|--5--5--5-5--6--6--6-6--6--|
----------------------|---------------------|---------------------------|


   E   E   S  E   E   E   S  E   E     E  E  S E  E  E  S E  E   
------------------------------------|---------------------------|
------------------------------------|---------------------------|
--12--12--12-12--11--11--11-11--11--|--7--7--7-7--8--8--8-8--8--|
--12--12--12-12--11--11--11-11--11--|--7--7--7-7--8--8--8-8--8--|
--10--10--10-10---9---9---9--9---9--|--5--5--5-5--6--6--6-6--6--|
------------------------------------|---------------------------|


   E   E   S  E   E   E   S  E   E     E  E  S E  E  E  S E  E   
------------------------------------|---------------------------|
------------------------------------|---------------------------|
--12--12--12-12--11--11--11-11--11--|--7--7--7-7--8--8--8-8--8--|
--12--12--12-12--11--11--11-11--11--|--7--7--7-7--8--8--8-8--8--|
--10--10--10-10---9---9---9--9---9--|--5--5--5-5--6--6--6-6--6--|
------------------------------------|---------------------------|


   E   E   S  E   E   E   S  E   E     E  E  S E  E  E  S E  E   
------------------------------------|---------------------------|
------------------------------------|---------------------------|
--12--12--12-12--11--11--11-11--11--|--7--7--7-7--8--8--8-8--8--|
--12--12--12-12--11--11--11-11--11--|--7--7--7-7--8--8--8-8--8--|
--10--10--10-10---9---9---9--9---9--|--5--5--5-5--6--6--6-6--6--|
------------------------------------|---------------------------|


   E   E   S  E   E   E   S  E   E     S S S S S S S S S S S S S S S S  
------------------------------------|----------------------------------|
------------------------------------|--6-6-6-6-6-6-6-6-7-7-7-7-7-7-7-7-|
--12--12--12-12--11--11--11-11--11--|--7-7-7-7-7-7-7-7-8-8-8-8-8-8-8-8-|
--12--12--12-12--11--11--11-11--11--|--7-7-7-7-7-7-7-7-8-8-8-8-8-8-8-8-|
--10--10--10-10---9---9---9--9---9--|--5-5-5-5-5-5-5-5-6-6-6-6-6-6-6-6-|
------------------------------------|----------------------------------|


   S  S  S  S  S  S  S  S  S  S  S  S  S  S  S  S  
--------------------------------------------------|
--11-11-11-11-11-11-11-11-10-10-10-10-10-10-10-10-|
--12-12-12-12-12-12-12-12-11-11-11-11-11-11-11-11-|
--12-12-12-12-12-12-12-12-11-11-11-11-11-11-11-11-|
--10-10-10-10-10-10-10-10--9--9--9--9--9--9--9--9-|
--------------------------------------------------|


  S S S S S S S S S S S S S S S S  
----------------------------------|
--6-6-6-6-6-6-6-6-7-7-7-7-7-7-7-7-|
--7-7-7-7-7-7-7-7-8-8-8-8-8-8-8-8-|
--7-7-7-7-7-7-7-7-8-8-8-8-8-8-8-8-|
--5-5-5-5-5-5-5-5-6-6-6-6-6-6-6-6-|
----------------------------------|


   S  S  S  S  S  S  S  S  S  S  S  S  S  S  S  S    W                   
--------------------------------------------------|--2~----------------||
--11-11-11-11-11-11-11-11-11-11-11-11-11-11-11-11-|--3-----------------||
--12-12-12-12-12-12-12-12-12-12-12-12-12-12-12-12-|--2-----------------||
--12-12-12-12-12-12-12-12-12-12-12-12-12-12-12-12-|--------------------||
--10-10-10-10-10-10-10-10-10-10-10-10-10-10-10-10-|--------------------||
--------------------------------------------------|--------------------||




Duration Legend
---------------
W - whole
H - half
Q - quarter
E - 8th
S - 16th
T - 32nd
X - 64th
. - note dotted
|-n-|  - n-tuplets


Tablature Legend
----------------
L - tied note
x - dead note
g - grace note
(n) - ghost note
> - accentuded note
NH - natural harmonic
AH - artificial harmonic
TH - tapped harmonic
SH - semi harmonic
PH - pitch harmonic
h - hammer on
p - pull off
b - bend
br - bendRelease
pb - preBend
pbr - preBendRelease
brb - bendReleaseBend
\n/ - tremolo bar dip
\n - tremolo bar dive
-/n - tremolo bar Release up
/n\ - tremolo bar inverted dip
/n - tremolo bar return
-\n - tremolo bar Release down
S - shift slide
s - legato slide
/ -  slide into from below or out of upwards
\ -  slide into from above or out of downwards
~ - vibrato
W - wide vibrato
tr - trill
TP - tremolo picking
T - tapping
S - slap
P - pop
< - fade in
^ - brush up
v - brush down
comments
We did not receive enough feedback on this tab! Please rate:
print report bad tab
1 2 3 4 5
I want to post or [tab]
guest
You may want to rate the tab now too:
select rating
Please do not post tabs as comments. Select "correction" instead!