Oops, an error
Loading. Please wait.

Makin It Back Tab

4,308 views 6 this week
no commentswrite comment
1 2 3 4 5
please rate
add to favorites
launch autoscroll
font size
0
reset
how to read this tab
guitar tuner
Tab Pro tools
  • play this tab
  • loop segment
  • change instrument
  • show fretboard
  • metronome
×
Best way to learn
"Makin It Back"
Autoscroll
slow
fast
+/-
esc
set tempo
stop
Contributor
Difficulty
novice
checa como se escucha: http://www.youtube.com/watch?v=ochjTHxZw5E

Pista 1
     Q    Q    E  E  E  E   
E||--8----8----8--8--8--7--|
B||--5----5----5--5--5--5--|
G||--5----5----5--5--5--5--|
D||------------------------|
A||------------------------|
E||------------------------|


  E  Q    E  E  E  E  E   
--L--7----7--7--7--7--7--|
--L--5----5--5--5--5--5--|
--L--5----5--5--5--5--5--|
-------------------------|
-------------------------|
-------------------------|


  Q    E  E  E  E  E  E   
--7----7--7--7--7--7--5--|
--5----5--5--5--5--5--5--|
--5----5--5--5--5--5--5--|
-------------------------|
-------------------------|
-------------------------|


  Q    E  E  E  E  E  E   
--5----5--5--5--5--------|
--5----5--5--5--5--------|
--5----5--5--5--5--------|
-------------------------|
-------------------------|
-------------------------|


  Q    Q    E  E  E  E   
--8----8----8--8--8--7--|
--5----5----5--5--5--5--|
--5----5----5--5--5--5--|
------------------------|
------------------------|
------------------------|


  E  Q    E  E  E  E  E   
--L--7----7--7--7--7--7--|
--L--5----5--5--5--5--5--|
--L--5----5--5--5--5--5--|
-------------------------|
-------------------------|
-------------------------|


  Q    E  E  E  E  E  E   
--7----7--7--7--7--7--5--|
--5----5--5--5--5--5--5--|
--5----5--5--5--5--5--5--|
-------------------------|
-------------------------|
-------------------------|


  Q    E  E  E  E  E  E   
--5----5--5--5--5--5-----|
--5----5--5--5--5--5-----|
--5----5--5--5--5--5-----|
-------------------------|
-------------------------|
-------------------------|

Solo:

  H        E  E  Q     
----------------------|
----------------------|
-----------------0----|
--------------2-------|
--0--------1----------|
----------------------|


  Q    Q    Q    Q     
----------------------|
----------------------|
-------2----0----L----|
----------------------|
-----------------0----|
----------------------|


  Q    E  E  H         
----------------------|
----------------------|
----------2--0--------|
----------------------|
----------------------|
----------------------|


  Q    E  E  E  Q    E     W                 
------------------------|-------------------|
------------------------|-------------------|
--2----0----------------|-------------------|
-------------2--2-------|--0----------------|
------------------------|-------------------|
------------------------|-------------------|


  Q    E  E  E  Q    E     W                 
------------------------|-------------------|
------------------------|-------------------|
--2----0----------------|-------------------|
-------------2--2----L--|--0----------------|
------------------------|-------------------|
------------------------|-------------------|


  H        E  Q    E   
----------------------|
----------------------|
--5--------5--4-------|
----------------------|
----------------------|
----------------------|


  E  Q    Q    S E  E  S  
-------------------------|
-------------------------|
-----4----7---------7--L-|
--5--------------5-------|
-------------------------|
-------------------------|


  Q    E  Q    Q    E   
-----------------------|
-----------------------|
--5-------5----7----9--|
-----------------------|
-----------------------|
-----------------------|


  E  E  E  E  E  E  Q     
-------------------------|
-------------------------|
-----------------9--7----|
--7----------------------|
-------------------------|
-------------------------|


  Q    Q     Q    Q     
-----------------------|
-----------------------|
--7----9----10---------|
------------------9----|
-----------------------|
-----------------------|


  E  E  E  E  E  E   E   E   
-----8--7--5--------13S--8--|
--------------8--7----------|
----------------------------|
----------------------------|
----------------------------|
----------------------------|


lo demas es lo mismo k la aprte anterior al solo asi k no lo puse y si no te gusta pues webos ja
comments
We did not receive enough feedback on this tab! Please rate:
print report bad tab
1 2 3 4 5
I want to post or [tab]
guest
You may want to rate the tab now too:
select rating
Please do not post tabs as comments. Select "correction" instead!