Oops, an error
Loading. Please wait.

Manía Cardiaca Bass Tab

version 1
version 1

Whole song

Interactive

3,456 views 9 this week
no commentswrite comment
1 2 3 4 5
please rate
add to favorites
launch autoscroll
font size
0
reset
guitar tuner
Tab Pro tools
  • play this tab
  • loop segment
  • change instrument
  • show fretboard
  • metronome
×
Best way to learn
"Manía Cardiaca"
Autoscroll
slow
fast
+/-
esc
set tempo
stop
Contributor
Difficulty
novice
Intro/Verso
G|-9-|-8-|-6-|-4-|
D|---|---|---|---|x3
A|---|---|---|---|
E|---|---|---|---|
                    _______________
Verso               |   1.|      2.|
G|-----|------|-----|-----|--------|
D|-----|------|-----|-----|--------|x2
A|-7-7-|-6-65-|-4-4-|-2-2-|-2(x16)-|
E|-----|------|-----|-----|--------|

Coro
G|---------|---------|---------|----------|---------|---------|---------|
D|*--------|---------|---------|------2-2-|---------|---------|---------|
A|*--------|-------2-|-4-4-444-|-4-4-4-4--|---------|---------|-2-2-222-|
E|-4-4-444-|-4-4-44--|---------|----------|-2-2-222-|-2-2-222-|---------|
                                                   _____________________
                                                   |
G|---------|---------|---------|-2-2-222-|-2-2-222-|---------|---------|
D|------1-1|-2-2-222-|-2-2-222-|---------|---------|-4-4-444-|-4-4-444-|
A|-2-2-2-2-|---------|---------|---------|---------|---------|---------|
E|---------|---------|---------|---------|---------|---------|---------|
__________________________________________
                    1.|                 2.|
G|---------|----------|---------|---------|
D|---------|---------*|-1-1-111-|-1-1-111-|
A|-2-2-222-|-2-2-222-*|---------|---------|
E|---------|----------|---------|---------|

Verso 2
G|---|-----|-----|---|
D|---|-----|-----|---|x3   
A|-7-|-6-5-|-4-3-|-2-|
E|---|-----|-----|---|
                    _______________
Verso               |   1.|      2.|
G|-----|------|-----|-----|--------|
D|-----|------|-----|-----|--------|x2
A|-7-7-|-6-65-|-4-4-|-2-2-|-2(x16)-|
E|-----|------|-----|-----|--------|

Coro
G|---------|---------|---------|----------|---------|---------|---------|
D|---------|---------|---------|------2-2-|---------|---------|---------|
A|---------|-------2-|-4-4-444-|-4-4-4-4--|---------|---------|-2-2-222-|
E|-4-4-444-|-4-4-44--|---------|----------|-2-2-222-|-2-2-222-|---------|
                                                   ____________________
                                                   |    
G|---------|---------|---------|-2-2-222-|-2-2-222-|---------|---------|
D|------1-1|-2-2-222-|-2-2-222-|---------|---------|-4-4-444-|-4-4-444-|
A|-2-2-2-2-|---------|---------|---------|---------|---------|---------|
E|---------|---------|---------|---------|---------|---------|---------|
_____________________________________________
                  1,2|                     3.|
G|---------|---------|---------|---------|---| 
D|---------|---------|-1-1-111-|-1-1-111-|-2-| 
A|-2-2-222-|-2-2-222-|---------|---------|---| 
E|---------|---------|---------|---------|---|  

Outro
G|---------|---------|---------|---------|---------|---------|---------|
D|---------|---------|---------|---------|---------|---------|---------|
A|-7-7-7-7-|-7-7-7-7-|-6-6-6-6-|-6-6-6-5-|-4-4-4-4-|-4-4-4-4-|-2-2-2-2-|
E|---------|---------|---------|---------|---------|---------|---------|

G|---------|    |---||
D|---------|x2  |---||
A|-2-2-2-2-|    |-2-||
E|---------|    |---||
comments
We did not receive enough feedback on this tab! Please rate:
print report bad tab
1 2 3 4 5
I want to post or [tab]
guest
You may want to rate the tab now too:
select rating
Please do not post tabs as comments. Select "correction" instead!