Oops, an error
Loading. Please wait.

Reflejo Tab

4 views 1 this week
no commentswrite comment
1 2 3 4 5
3 more votes to show rating
add to favorites
launch autoscroll
font size
0
reset
how to read this tab
guitar tuner
Autoscroll
slow
fast
+/-
esc
set tempo
stop
Help us to improve Ultimate-Guitar.com Take our survey!
×
Escucha por el ritmo

[Intro]
e|-3-3-3-3-3-3-3-3-3|-5-5-5-5-5-5-5-5-5-5|-3-3-3-3-3-3-3-3-3|-10-10-10-10-10-10-10-10----|
B|-5-5-5-5-5-5-5-5-5|-6-6-6-6-6-6-6-6-6-6|-5-5-5-5-5-5-5-5-5|-10-10-10-10-10-10-10-10----|
G|-5-5-5-5-5-5-5-5-5|-7-7-7-7-7-7-7-7-7-7|-4-4-4-4-4-4-4-4-4|-10-10-10-10-10-10-10-10----|
D|-5-5-5-5-5-5-5-5-5|-7-7-7-7-7-7-7-7-7-7|-5-5-5-5-5-5-5-5-5|-12-12-12-12-12-12-12-12----|
A|------------------|--------------------|------------------|----------------------------|
E|------------------|--------------------|------------------|----------------------------|

[Verso]

Toca los versos staccato y con un acento al final de los frases y deja el acorde sostener un rato

(Guitarra I)
e|------------------------------|---------------------------------------------- -------|
B|---------------5-------------5|-----------------6------------------------------------|
G|-5-5-5-5-5-5-5-5-5-5-5-5-5-5-5|-7-7-7-7-7-7-7-7-7-7-7-7-7-7-7-7----------------------|
D|-5-5-5-5-5-5-5-5-5-5-5-5-5-5-5|-7-7-7-7-7-7-7-7-7-7-7-7-7-7-7-7-7--------------------|
A|------------------------------|------------------------------------------------------|
E|------------------------------|------------------------------------------------------|

e|------------------------------5------------------------------------------------------|
B|5-5-5-5-5-5-5-5-6-6-6-6-6-6-6-6------------------------------------------------------|
G|4-4-4-4-4-4-4-4-7-7-7-7-7-7-7-7-repite x2--------------------------------------------|
D|5-5-5-5-5-5-5-5-7-7-7-7-7-7-7-7------------------------------------------------------|
A|-------------------------------------------------------------------------------------|
E|-------------------------------------------------------------------------------------|

(Guitarra II)
e|---------|-----7--------7----------8-7------8-7------7-------------------------------|
B|5/8/12/13|-------8--------8------------8--------8------8-----------------------------|
G|5/9/12/12|--9--------9--------9-10-------10-------9---------Repite x2----------------|
D|---------|---------------------------------------------------------------------------|
A|---------|---------------------------------------------------------------------------|
E|---------|---------------------------------------------------------------------------|


[Coro]

  Que       se-            ra                      que cuan-           
e|3-3-3-3-3-3-3-3-3-3-3-3|------------------------------------------------------------|
B|5-5-5-5-5-5-5-5-5-5-5-5|-5-5-5-5-5-5-5-5-5-5-5-5-5|-6-6-6-6-6-6-6-6-6-6-6-----------|
G|5-5-5-5-5-5-5-5-5-5-5-5|-5-5-5-5-5-5-5-5-5-5-5-5-5|-7-7-7-7-7-7-7-7-7-7-7-----------|
D|5-5-5-5-5-5-5-5-5-5-5-5|-7-7-7-7-7-7-7-7-7-7-7-7-7|-7-7-7-7-7-7-7-7-7-7-7-----------|
A|3-3-3-3-3-3-3-3-3-3-3-3|-5-5-5-5-5-5-5-5-5-5-5-5-5|-5-5-5-5-5-5-5-5-5-5-5-----------|
E|-----------------------|-5-5-5-5-5-5-5-5-5-5-5-5-5----------------------------------|



  do me       ves me alum- bras           se ve uuuuuu          Que soy          gente de penumbras
e|---------------------|-------------------2-2-2-2-2-2-2-2|----------------------------------------------|
B|6-6-6-6-6-6-6-6-6-6-6|-6-5-5-5-5-5-5-5-5-1-1-1-1-1-1-1-1|-6-6-6-6-6-6-6-6-6-6-6-6-6-6-6-6-6-6-6-6-6----|
G|7-7-7-7-7-7-7-7-7-7-7|-7-5-5-5-5-5-5-5-5-2-2-2-2-2-2-2-2|-7-7-7-7-7-7-7-7-7-7-7-7-7-7-7-7-7-7-7-7-7----|
D|6-6-6-6-6-6-6-6-6-6-6|-6-5-5-5-5-5-5-5-5-1-1-1-1-1-1-1-1|-7-7-7-7-7-7-7-7-7-7-7-6-6-6-6-6-6-6-6-6-6----|
A|5-5-5-5-5-5-5-5-5-5-5|-5-3-3-3-3-3-3-3-3----------------|-5-5-5-5-5-5-5-5-5-5-5-5-5-5-5-5-5-5-5-5-5----|
E|---------------------|----------------------------------|----------------------------------------------|


e|-----------------------------------------------------------------------------|
B|-----------------------------------------------------------------------------|
G|5---7---9---4---2---7---9---10---5---4---9---10---12---8---7---7---9--10-5-4-|
D|-----------------------------------------------------------------------------|
A|-----------------------------------------------------------------------------|
E|-----------------------------------------------------------------------------|

[Verso]

(Solo)
e|---------------------------------------------------------------------------|
B|1/9-9-8-6-5---5-6-8-9-8-6-5------------------------------------------------|
G|------------7---------------7-7/10-9-5/7-5-5-4-5-7-7-9-7-5-4 7-9-10-9-7-5-9|
D|---------------------------------------------------------------------------|
A|---------------------------------------------------------------------------|
E|---------------------------------------------------------------------------|


e|------------------------------|---------------------------------------------- -------|
B|---------------5-------------5|-----------------6------------------------------------|
G|-5-5-5-5-5-5-5-5-5-5-5-5-5-5-5|-7-7-7-7-7-7-7-7-7-7-7-7-7-7-7-7----------------------|
D|-5-5-5-5-5-5-5-5-5-5-5-5-5-5-5|-7-7-7-7-7-7-7-7-7-7-7-7-7-7-7-7-7--------------------|
A|------------------------------|------------------------------------------------------|
E|------------------------------|------------------------------------------------------|

e|------------------------------5------------------------------------------------------|
B|5-5-5-5-5-5-5-5-6-6-6-6-6-6-6-6------------------------------------------------------|
G|4-4-4-4-4-4-4-4-7-7-7-7-7-7-7-7-repite x2--------------------------------------------|
D|5-5-5-5-5-5-5-5-7-7-7-7-7-7-7-7------------------------------------------------------|
A|-------------------------------------------------------------------------------------|
E|-------------------------------------------------------------------------------------|



e|---------|----7-----7--------8-7------8-7-----7-----------------------------|
B|5/8/12-13|------8-----8----------8--------8-----8---------------------------|
G|5/9/12-12|--9-----9-----9-10-------10-------9---------Repite x2-------------|
D|---------|------------------------------------------------------------------|
A|---------|------------------------------------------------------------------|
E|---------|------------------------------------------------------------------|


************************************

| /   Slide up

************************************
Suggest correction
Give kudos to tab author, rate the tab!
1 2 3 4 5
comments
print report bad tab
guest
You may want to rate the tab now too:
select rating
Wanna post a correction for this tab? Suggest correction