Oops, an error
Loading. Please wait.

Sanguijuela Tab

version 1
version 1

Whole song

Interactive

2,228 views 3 this week
no commentswrite comment
1 2 3 4 5
please rate
add to favorites
launch autoscroll
font size
0
reset
how to read this tab
guitar tuner
Tab Pro tools
  • play this tab
  • loop segment
  • change instrument
  • show fretboard
  • metronome
×
Best way to learn
"Sanguijuela"
Autoscroll
slow
fast
+/-
esc
set tempo
stop
Contributor
-------## Tablatura de mi versión para Sanguijuela de Enjambre,
por Fernando Arroyo, checa mi
cover, para mayor referencia de la tab, en youtube
http://www.youtube.com/watch?v=_XF3r6oY-j4
Comentarios o sugerencias a fergto78@hotmail.com
http://www.facebook.com/fergto78
http://twitter.com/#!/fergto78 -------##

Afinación Estándar

Intro:

   Guitarra 1 con Ebow
 e|-------------------------------------------------------|
 B|-------------------------------------------------------|
 G|-13~~~~14~~~~~16~14~13~~~16~14~13~~~16~14~13~~~14/11~~~|
 D|-------------------------------------------------------|
 A|-------------------------------------------------------|
 E|-------------------------------------------------------|
  |
  | Guitarra 2 CON CAPO EN 4TO. TRASTE (sin tiempos, solo los acordes)
G#|---------------------------------|
D#|--------------5---5---5---5------|
B |--------------6---5-------6------|
F#|--------------6---6---6---7------|
C#|----------------------7----------|
G#|---------------------------------|

Continuación intro

 Guitarra 1 con Ebow
|-------------------------------------------------------|
|-------------------------------------------------------|
|~~14~13~~~~~~11~14~13~~~~~~11~14~13~/14~/9~~~~~~~~~~~~~|
|-------------------------------------------------------|
|-------------------------------------------------------|
|-------------------------------------------------------|
|
| Guitarra 2 CON CAPO EN 4TO. TRASTE
|-------------------------|
|---5---5---5---5---------|
|---6---5-------6---------|
|---6---6---6---7---------|
|-----------7-------------|
|-------------------------|

Verso

| Guitarra 2 CON CAPO EN 4TO. TRASTE
|-----------7-------|
|--5-----5----------|
|-----5--6----------|
|--6--6--7----------|
|--7--7-----6-------|
|-----------7-------|

Continuación Verso

Guitarra 1 con Ebow
|---------------(2 tiempos)--------------------|
|----------------------------------------------|
|.~~~9~~~/13~/~8~/~13~/~6~/~13~/~8~/~14~/~13~/.|
|.--------------------------------------------.|
|----------------------------------------------|
|----------------------------------------------|
|
| Guitarra 2 CON CAPO EN 4TO. TRASTE
|------------7-----(2 tiempos)------|
|---5-----5-------------------------|
|.-----5--6------------------------.|
|.--6--6--7------------------------.|
|---7--7-----6----------------------|
|------------7----------------------|

Puente al coro

Guitarra 1
|---7----7-----7----7------------------------10----10-----|
|---8----8-----8----8--10b(12)r--8~--8-10/12----12----12/-|
|-9----9-----9----9----------------9----------------------|
|---------------------------------------------------------|
|---------------------------------------------------------|
|---------------------------------------------------------|
|
| Guitarra 2 CON CAPO EN 4TO. TRASTE
|--7----5----------------------|
|--8----5----------------------|
|--9----6----------------------|
|--9----7----10----12----------|
|--7----7----10----12----------|
|-------5----8-----10----------|

Coro

Guitarra 1
|----------------------------------|
|----------------------------------|
|----------------------------------|
|-/9-9-9-7-7-7-5-5/9-9-9-7-7-7-5-5-|
|----------------------------------|
|----------------------------------|
|
| Guitarra 2 CON CAPO EN 4TO. TRASTE
|----------------------|
|----------------------|
|--12------------------|
|--12------------------|
|--10------------------|
|----------------------|

Continuación Coro

Guitarra 1
|------------(2 tiempos)------------------|
|-----------------------------------------|
|.---------------------------------------.|
|./10-10-10-9-9-9-7-7/10-10-10-9-9-9-7-7-.|
|-----------------------------------------|
|-----------------------------------------|
|
| Guitarra 2 CON CAPO EN 4TO. TRASTE
|---------(2 tiempos)--|
|----------------------|
|.--14----------------.|
|.--14----------------.|
|---12-----------------|
|----------------------|

Continuación Coro

Guitarra 1
|----------(2 tiempos)--------------|
|-----------------------------------|
|.---------------------------------.|
|.-/9-9-9-7-7-7-5-5/9-9-9-7-7-7-5-5.|
|-----------------------------------|
|-----------------------------------|
|
| Guitarra 2 CON CAPO EN 4TO. TRASTE
|---------(2 tiempos)--|
|----------------------|
|.--12----------------.|
|.--12----------------.|
|---10-----------------|
|----------------------|

Continuación Coro

Guitarra 1
|------------(2 tiempos)------------------|
|-----------------------------------------|
|.---------------------------------------.|
|./10-10-10-9-9-9-7-7/10-10-10-9-9-9-7-7-.|
|-----------------------------------------|
|-----------------------------------------|
|
| Guitarra 2 CON CAPO EN 4TO. TRASTE
|---------(2 tiempos)--|
|----------------------|
|.--14----------------.|
|.--14----------------.|
|---12-----------------|
|----------------------|

Fin Coro

  Guitarra 1
|----------|
|----------|
|----------|
|-/9~~~----|
|----------|
|----------|
|
| Guitarra 2 CON CAPO EN 4TO. TRASTE
|----------|
|--5~------|
|----------|
|--6~------|
|--7~------|
|----------|

Puente

   Guitarra 1 con Ebow
|----------------------------------|
|----------------------------------|
|-16~~~~14~13~~~16~14~13~~~14/11~~~|
|----------------------------------|
|----------------------------------|
|----------------------------------|
|
| Guitarra 2 CON CAPO EN 4TO. TRASTE
|----------------7-------|
|------------5-----------|
|-------5----6-----------|
|-------6----7-----------|
|-------7--------6-------|
|----------------7-------|

Continuación puente

Guitarra 1 con Ebow
|-------------------------------------------|
|-------------------------------------------|
|~~14~13~~~~~~11~14~13~~~~~11~14~13~/14~/9~~|
|-------------------------------------------|
|-------------------------------------------|
|-------------------------------------------|
|
| Guitarra 2 CON CAPO EN 4TO. TRASTE
|--------------7-----------|
|--5-------5---------------|
|------5---6---------------|
|--6---6---7---------------|
|--7---7-------6-----------|
|--------------7-----------|

 Verso

 Guitarra 2 CON CAPO EN 4TO. TRASTE
|---------------7----(3 tiempos)-|
|---5-------5--------------------|
|.------5---6-------------------.|
|.--6---6---7-------------------.|
|---7---7-------6----------------|
|---------------7----------------|
 Guitarra 1( aprox. a mitad del segundo tiempo con efecto tremolo e Ebow)
            |----------|
            |----------|
            |-9~~~~~~~~|
            |----------|
            |----------|
            |----------|

Puente al coro

Guitarra 1
|---7----7-----7----7------------------------10-----10---|
|---8----8-----8----8--10b(12)r--8~--8-10/12----12----12-|
|/9----9-----9----9----------------9---------------------|
|--------------------------------------------------------|
|--------------------------------------------------------|
|--------------------------------------------------------|
|
| Guitarra 2 CON CAPO EN 4TO. TRASTE
|--7----5----------------------|
|--8----5----------------------|
|--9----6----------------------|
|--9----7----10----------------|
|--7----7----10----------------|
|-------5----8-----------------|

Continuación Puente al coro

Guitarra 1
|-12--10h12p10-----------------|
|--------------12---12p10-12/--|
|------------------------------|
|------------------------------|
|------------------------------|
|------------------------------|
|
| Guitarra 2 CON CAPO EN 4TO. TRASTE
|---------------|
|---------------|
|---------------|
|---12----------|
|---12----------|
|---10----------|

Coro

Guitarra 1
|----------------------------------|
|----------------------------------|
|----------------------------------|
|-/9-9-9-7-7-7-5-5/9-9-9-7-7-7-5-5-|
|----------------------------------|
|----------------------------------|
|
| Guitarra 2 CON CAPO EN 4TO. TRASTE
|----------------------|
|----------------------|
|--12------------------|
|--12------------------|
|--10------------------|
|----------------------|

Continuación Coro

Guitarra 1
|------------(2 tiempos)------------------|
|-----------------------------------------|
|.---------------------------------------.|
|./10-10-10-9-9-9-7-7/10-10-10-9-9-9-7-7-.|
|-----------------------------------------|
|-----------------------------------------|
|
| Guitarra 2 CON CAPO EN 4TO. TRASTE
|---------(2 tiempos)--|
|----------------------|
|.--14----------------.|
|.--14----------------.|
|---12-----------------|
|----------------------|

Continuación Coro

Guitarra 1
|----------(2 tiempos)--------------|
|-----------------------------------|
|.---------------------------------.|
|.-/9-9-9-7-7-7-5-5/9-9-9-7-7-7-5-5.|
|-----------------------------------|
|-----------------------------------|
|
| Guitarra 2 CON CAPO EN 4TO. TRASTE
|---------(2 tiempos)--|
|----------------------|
|.--12----------------.|
|.--12----------------.|
|---10-----------------|
|----------------------|

Continuación Coro

Guitarra 1
|------------(2 tiempos)------------------|
|-----------------------------------------|
|.---------------------------------------.|
|./10-10-10-9-9-9-7-7/10-10-10-9-9-9-7-7-.|
|-----------------------------------------|
|-----------------------------------------|
|
| Guitarra 2 CON CAPO EN 4TO. TRASTE
|---------(2 tiempos)--|
|----------------------|
|.--14----------------.|
|.--14----------------.|
|---12-----------------|
|----------------------|

Guitarra 1
|----------(2 tiempos)--------------|
|-----------------------------------|
|.---------------------------------.|
|.-/9-9-9-7-7-7-5-5/9-9-9-7-7-7-5-5.|
|-----------------------------------|
|-----------------------------------|
|
| Guitarra 2 CON CAPO EN 4TO. TRASTE
|---------(2 tiempos)--|
|----------------------|
|.--12----------------.|
|.--12----------------.|
|---10-----------------|
|----------------------|

Continuación Coro

Guitarra 1
|------------(2 tiempos)------------------|
|-----------------------------------------|
|.---------------------------------------.|
|./10-10-10-9-9-9-7-7/10-10-10-9-9-9-7-7-.|
|-----------------------------------------|
|-----------------------------------------|
|
| Guitarra 2 CON CAPO EN 4TO. TRASTE
|---------(2 tiempos)--|
|----------------------|
|.--14----------------.|
|.--14----------------.|
|---12-----------------|
|----------------------|

Puente al outro

Guitarra 1 con Ebow
|---------------(2 tiempos)--------------------|
|----------------------------------------------|
|.~~9~~~/13~/~8~/~13~/~6~/~13~/~11~/~14~/~13~/.|
|.--------------------------------------------.|
|----------------------------------------------|
|----------------------------------------------|
|
| Guitarra 2 CON CAPO EN 4TO. TRASTE
|--------(2 tiempos)------|
|------5---5---5---5------|
|.-----6---5-------6-----.|
|.-----6---6---6---7-----.|
|--------------7----------|
|-------------------------|

Outro

Guitarra 1 con Ebow
|---------------(2 tiempos)--------------------|
|----------------------------------------------|
|.~~9~~~/13~/~8~/~13~/~6~/~13~/~11~/~14~/~13~/.|
|.--------------------------------------------.|
|----------------------------------------------|
|----------------------------------------------|
|
|Guitarra 2 CON CAPO EN 4TO. TRASTE
|---------------7----(2 tiempos)-|
|---5-------5--------------------|
|.------5---6-------------------.|
|.--6---6---7-------------------.|
|---7---7-------6----------------|
|---------------7----------------|

Fin outro
  Guitarra 1
|----------|
|----------|
|-9~~~~~~~~|
|----------|
|----------|
|----------|
|
| Guitarra 2 CON CAPO EN 4TO. TRASTE
|----------|
|--5~------|
|----------|
|--6~------|
|--7~------|
|----------|
comments
We did not receive enough feedback on this tab! Please rate:
print report bad tab
1 2 3 4 5
I want to post or [tab]
guest
You may want to rate the tab now too:
select rating
Please do not post tabs as comments. Select "correction" instead!