Oops, an error
Loading. Please wait.

Segundo Tema Tab

687 views 1 this week
no commentswrite comment
1 2 3 4 5
excellent!
x 1
add to favorites
launch autoscroll
font size
0
reset
how to read this tab
guitar tuner
Tab Pro tools
  • play this tab
  • loop segment
  • change instrument
  • show fretboard
  • metronome
Autoscroll
slow
fast
+/-
esc
set tempo
stop
Contributor
Difficulty
novice
-------## Tablatura de mi versión para Segundo Tema de Enjambre,
por Fernando Arroyo, checa mi
cover, para mayor referencia de la tab, en youtube,
http://youtu.be/Yj7uSNbHWdg?t=3m58s
además, podrás bajar los backing tracks para practicar :)
Comentarios o sugerencias a fergto78@hotmail.com
http://www.facebook.com/fergto78
-------##

-Afinación Estándar
-Acordes sin tiempos

Intro 

Guitarra 1

e|-----------------------------------|
B|--------------------------9-9------|
G|.-8-8-------------5-5-7-7-----7-7-.|12 tiempos
D|.-----5-5-6-6-5-5-----------------.|
A|-----------------------------------|
E|-----------------------------------|

Guitarra 2 (ó teclado)

   Cm 7    Fm6
|--3-------4-----|
|--4-------3-----|al inicio
|.-3-------5----.|se mantiene en
|.-5-------3----.|Cm7 y entra junto 
|--3-------3-----|con el bajo
|----------------|8 tiempos

Guitarra 1

|------------------------5/7/5---5--|
|------5-5-8-8-5-5-5-5-8-------8----|
|.-5-5-----------------------------.|3 tiempos
|.---------------------------------.|
|-----------------------------------|
|-----------------------------------|

|--------5/7/5---5--|
|--5-5-8-------8----|
|.-----------------.|2 tiempos
|.-----------------.|
|-------------------|
|-------------------|

Verso

Guitarra 1

   C   D#dim  Dm  G   Dm  D#dim C
|------2------5---3---5---2----------|
|--5---1------6---3---6---1-----5----|
|.-5---2------7---4---7---2-----5---.|2 tiempos
|.-5---1------7---5---7---1-----5---.|
|--3----------5---5---5---------3----|
|-----------------3------------------|

|----------------------------|
|----------------------------|
|-5---8---7---12---7---8---5-|
|----------------------------|
|-3---6---5---10---5---6---3-|
|----------------------------|

|--------------------------|
|--------------------------|
|-5---8---7---12---7---8---|
|--------------------------|
|-3---6---5---10---5---6---|
|--------------------------|

Guitarra 2

  C5  D#dim  Dm  G   Dm  D#dim C5
|-----2------5---3---5---2---------|
|-----1------6---3---6---1---------|
|-5---2------7---4---7---2-----5---|
|-5---1------7---5---7---1-----5---|
|-3----------5---5---5---------3---|
|----------------3-----------------|

  C5  D#dim  Dm  G   Dm  D#dim F#dim
|-----2------5---3---5---2--/--5----|
|-----1------6---3---6---1--/--4----|
|-5---2------7---4---7---2--/--5----|
|-5---1------7---5---7---1--/--4----|
|-3----------5---5---5--------------|
|----------------3------------------|

Puente al coro

Guitarra 1

|---------7-7-------|
|-5-5-8-8-----8-8---|
|.-----------------.|2 tiempos
|.-----------------.|
|-------------------|
|-------------------|

|-------------------|
|----------5-5------|2 tiempos
|.-----5-5-----5-5-.|
|.-5-5-------------.|
|-------------------|
|-------------------|

|---------7-7-------|
|-5-5-8-8-----8-8---|
|.-----------------.|4 tiempos
|.-----------------.|
|-------------------|
|-------------------|

Guitarra 2

  E5   C5   E5   F5
|--------------------|
|--------------------|
|------5-------------|
|-2----5----2----3---|
|-2----3----2----3---|
|-0---------0----1---|

Coro

Guitarra 1

  C5  G+5 Gm+5 G+5  Fm  G#  C
|-------------------8---4---8---|
|-------------------9---4---8---|
|.------------------10--5---9--.|2 tiempos
|.------------------10--6---10-.|
|-10--10--10---10---8---6---10--|
|-8---7---6----7--------4---8---|

Solo

Guitarra 1 (con volume swell)

|------------------------------------------------|
|------9~~8~~--/13~~-12-13-12~~~-/13~~12-13-15~~-|
|-5~~~-------------------------------------------|
|------------------------------------------------|
|------------------------------------------------|
|------------------------------------------------|

|-12~~------15~~~~/|
|------13~~--------|
|------------------|
|------------------|
|------------------|
|------------------|

|--------------------------12~~~-----13~~~-12-13/15-|
|------9~~8~~--/13~~-12-13------15~~~---------------|
|-5~~~----------------------------------------------|
|---------------------------------------------------|
|---------------------------------------------------|
|---------------------------------------------------|

|/17~~~/13--12~~~~~|
|------------------|
|------------------|
|------------------|
|------------------|
|------------------|

Guitarra 2

   C   D#dim  Dm  G   Dm  D#dim C
|------2------5---3---5---2----------|
|--5---1------6---3---6---1-----5----|
|.-5---2------7---4---7---2-----5---.|2 tiempos
|.-5---1------7---5---7---1-----5---.|
|--3----------5---5---5---------3----|
|-----------------3------------------|

Verso 2

Guitarra 1

|----------------------------|
|----------------------------|
|-5---8---7---12---7---8---5-|
|----------------------------|
|-3---6---5---10---5---6---3-|
|----------------------------|

|--------------------------|
|--------------------------|
|-5---8---7---12---7---8---|
|--------------------------|
|-3---6---5---10---5---6---|
|--------------------------|

Guitarra 2

  C5  D#dim  Dm  G   Dm  D#dim C5
|-----2------5---3---5---2---------|
|-----1------6---3---6---1---------|
|-5---2------7---4---7---2-----5---|
|-5---1------7---5---7---1-----5---|
|-3----------5---5---5---------3---|
|----------------3-----------------|

  C5  D#dim  Dm  G   Dm  D#dim F#dim
|-----2------5---3---5---2--/--5----|
|-----1------6---3---6---1--/--4----|
|-5---2------7---4---7---2--/--5----|
|-5---1------7---5---7---1--/--4----|
|-3----------5---5---5--------------|
|----------------3------------------|

Puente al coro

Guitarra 1

|---------7-7-------|
|-5-5-8-8-----8-8---|
|.-----------------.|2 tiempos
|.-----------------.|
|-------------------|
|-------------------|

|-------------------|
|----------5-5------|2 tiempos
|.-----5-5-----5-5-.|
|.-5-5-------------.|
|-------------------|
|-------------------|

|---------7-7-------|
|-5-5-8-8-----8-8---|
|.-----------------.|3 tiempos
|.-----------------.|
|-------------------|
|-------------------|

Guitarra 2

  E5   C5   E5   F5
|--------------------|
|--------------------|
|------5-------------|
|-2----5----2----3---|
|-2----3----2----3---|
|-0---------0----1---|

Coro Final y outro

Guitarra 1

  C5  G+5 Gm+5 G+5  Fm  G#  C
|-------------------8---4---8---|
|-------------------9---4---8---|
|-------------------10--5---9---|
|-------------------10--6---10--|
|-10--10--10---10---8---6---10--|
|-8---7---6----7--------4---8---|

  C5  G+5 Gm+5 G+5  Fm  G#  
|-------------------8---4----|
|-------------------9---4----|
|-------------------10--5----|
|-------------------10--6----|
|-10--10--10---10---8---6----|
|-8---7---6----7--------4----|

  Fm  G   Fm   G#   C
|-8---3---8----4----8---|
|-9---3---9----4----8---|
|-10--4---10---5----9---|
|-10--5---10---6----10--|
|-8---5---8----6--- 10--|
|-----3--------4----8---|
comments
We did not receive enough feedback on this tab! Please rate:
print report bad tab
1 2 3 4 5
I want to post or [tab]
guest
You may want to rate the tab now too:
select rating
Please do not post tabs as comments. Select "correction" instead!