Oops, an error
Loading. Please wait.

Transeunte Chords

version 2
version 2

Whole song

7 views 1 this week
no commentswrite comment
1 2 3 4 5
3 more votes to show rating
add to favorites
launch autoscroll
font size
0
reset
transpose
0
reset
simplify chords
display chords
guitar tuner
Autoscroll
slow
fast
+/-
esc
set tempo
stop
Help us to improve Ultimate-Guitar.com Take our survey!
×
Author
Difficulty
Am: x02210
Dm: xx0231
Ddim: xx0131
C: x32010
A: x02220
AMaj7: x02120
F#m: x4422x
F#mMaj7: x4322x
Bm: x24432
Bm7: x24232
E: 022100
Edim: 023100
A#dim: x123xx
Dmaj7: xx0222 

https://youtu.be/x5txkgoJ0CU


[Verso]
   Am       Dm
Yo no me opondré 
      Ddim             C
Si al morir me prenden fuego
Am                   Dm 
Fuego en su danza de fe 
     Ddim       A
Consumiendo hasta luego 


[Coro]
F#m   F#mMaj7     Bm  Bm7
Si me muero de calor
E      Edim        A   AMaj7 
Bailen todos con sabor 
F#m    F#mMaj7     Bm Bm7
Sigan todos al tambor 
E        Edim         A  AMaj7
Y no me lloren por favor 
F#m        F#mMaj7       Bm Bm7
No quiero misa bajo un altar 
E           Edim                A AMaj7
Quiero ser ceniza que lleva el mar 




Donde hay dos notas debes utilizar los dedos y su púa para tocarla
e|--------------------7--9--7--9--7---------------------------5---7---9---7---5--------|
B|7---7--6---2--5-3-------------------5---7---9---7---5--------------------------------|
G|--------------------7--9--7--9--7-----------------------6---6---7---9---7---6--------|
D|-------------------------------------------------------------------------------------|
A|-------------------------------------------------------------------------------------|
E|-------------------------------------------------------------------------------------|

[Verso] 
Am  Dm  Ddim  C  Am  Dm  Ddim  A

[Coro]

F#m       F#mMaj7        Bm  Bm7
No quiero misa bajo un altar 
E           Edim                A   
Quiero ser ceniza que lleva el mar
A#dim                     Dmaj7 
  Suspiro que viaja cual atardecer 

[Outro]
Dm                 AMaj7
 Apenas y lo puedes ver 
A#dim
  Somos sombras
    Dmaj7 
Un sueño de ayer 
Dm             AMaj7
 Se olvida al amanecer

Luego vas a tocar los mismos acordes del verso y acabar con esto

e|------------------4--------------------------------------------------------|
B|------------------2--------------------------------------------------------|
G|5-----5-4-----4---2--------------------------------------------------------|
D|---4-------3------2--------------------------------------------------------|
A|---------------------------------------------------------------------------|
E|---------------------------------------------------------------------------|
Suggest correction
Give kudos to tab author, rate the tab!
1 2 3 4 5
comments
print report bad tab
guest
You may want to rate the tab now too:
select rating
Wanna post a correction for this tab? Suggest correction