Oops, an error
Loading. Please wait.

Ultimo Tema Tab

version 2
version 2

Whole song

1,720 views 30 this week
no commentswrite comment
1 2 3 4 5
excellent!
x 1
add to favorites
launch autoscroll
font size
0
reset
how to read this tab
guitar tuner
Tab Pro tools
  • play this tab
  • loop segment
  • change instrument
  • show fretboard
  • metronome
Autoscroll
slow
fast
+/-
esc
set tempo
stop
Contributor
Difficulty
novice
-------## Tablatura de mi versión para Ultimo Tema de Enjambre,
por Fernando Arroyo, checa mi
cover, para mayor referencia de la tab, en youtube,
http://youtu.be/Yj7uSNbHWdg 
además, podrás bajar los backing tracks para practicar :)
Comentarios o sugerencias a fergto78@hotmail.com
http://www.facebook.com/fergto78
-------##

-Afinación Estándar
-Acordes sin tiempos

Guitarra 1

Intro
    Am     D7    Gmaj7
e|--5------5------X------|
B|--5------7------3------|
G|.-5------5------4-----.|2 tiempos
D|.-7------7------4-----.|
A|--7------5------X------|
E|--5-------------3------|

   Am     D7    F#dim
|--5------5-------5------|
|--5------7-------4------|
|--5------5-------5------|
|--7------7-------4------|
|--7------5--------------|
|--5---------------------|

Verso

    G     F#dim
|---7-------5------|
|---8-------4------|
|.--7-------5-----.|3 tiempos
|.--9-------4-----.|
|------------------|
|------------------|
 
    G(con auto wah)     F#dim
|---7~~~~~~-------------5------|
|---8~~~~~~-------------4------|
|---7~~~~~~-------------5------|
|---9~~~~~~-------------4------|
|------------------------------|
|------------------------------|

Guitarra 2

|-------------------------------------|
|-------------------------------------|
|.---5---5---5---5-----4---4---4---4-.|2 tiempos
|.-7---7---7---7-----4---4---4---4---.|
|-------------------------------------|
|-------------------------------------|

Guitarra 1

    G      F#dim
|---7-------5------|
|---8-------4------|
|.--7-------5-----.|2 tiempos
|.--9-------4-----.|
|------------------|
|------------------|

   D     Em    F#dim
|--------7-----5------|
|--7-----8-----4------|
|.-7-----9-----5-----.|2 tiempos
|.-7-----9-----4-----.|
|--5-----7------------|
|---------------------|

  C
|------|
|-5----|
|-5----|
|-5----|
|------|
|------|

Guitarra 2

|-------------------------------------|
|-------------------------------------|
|.---5---5---5---5-----4---4---4---4-.|2 tiempos
|.-7---7---7---7-----4---4---2---2---.|
|-------------------------------------|
|-------------------------------------|

|------------------|
|------------------|
|---5---5---5---5--|
|-7---7---7---7----|
|------------------|
|------------------|
  C
|------|
|-1----|
|-0----|
|-2----|
|-3----|
|------|

Coro

Guitarra 1

|------7-------7-------7-------7-------5-------5----
|----8---8---8---8---7---7---7---7---5---5---5---5--
|.-7-------7-------7-------7-------5-------5--------
|.--------------------------------------------------
|---------------------------------------------------
|---------------------------------------------------

-----7-------7-----|
---7---7---7---7---|
-7-------7--------.|3 tiempos
------------------.|
-------------------|
-------------------|

|-----7-------7-------7-------7-------5-------5----
|---8---8---8---8---7---7---7---7---5---5---5---5--
|-7-------7-------7-------7-------5-------5--------
|--------------------------------------------------
|---------------------------------------------------
|---------------------------------------------------

-----2-------2-----|
---3---3---3---3---|
-2-------2---------|
-------------------|
-------------------|
-------------------|

   Am     D7    Gmaj7
|--5------5------X------|
|--5------7------3------|
|--5------5------4------|
|--7------7------4------|
|--7------5------X------|
|--5-------------3------|

Guitarra 2
 
   G   Em  Am  Bm
|--3---0---0---2---|
|--0---0---1---3---|
|.-0---0---2---4--.|2 tiempos
|.-0---2---2---4--.|
|--2---2---0---2---|
|--3---0-----------|

|---------------------------------|
|---------------------------------|
|-11-9--12--11-9--17--7--17--7----|
|---------------------------------|
|-9--7--10--9--7--15--5--15--5----|
|---------------------------------|

|-----------------|
|---------0-------|
|-------0---------|
|-----0-----------|
|---2-------------|
|-3---------------|

Solo

Guitarra 1

   Am     D7     Gmaj7
|--5------5------X------|
|--5------7------3------|
|--5------5------4------|
|--7------7------4------|
|--7------5------X------|
|--5-------------3------|

   Am     D7      F#dim
|--5------5-------5------|
|--5------7-------4------|
|--5------5-------5------|
|--7------7-------4------|
|--7------5--------------|
|--5---------------------|

Guitarra 2

|-----------------------------------|
|-----------------------------------|
|-----------------------------------|
|-----0--2--/4-/2--0----------------|
|-2h3----------------3--3-3/2-------|
|-----------------------------3~~~~~|

|----------------------------|
|----------------------------|
|----------------------------|
|-----0--2--4--5--7--9--10~~~|
|-2h3------------------------|
|----------------------------|

Verso

Guitarra 1

    G       F#dim
|---7-------5------|
|---8-------4------|
|.--7-------5-----.|2 tiempos
|.--9-------4-----.|
|------------------|
|------------------|

   D     Em    F#dim   
|--------7-----5------|
|--7-----8-----4------|
|.-7-----9-----5-----.|2 tiempos	
|.-7-----9-----4-----.|
|--5-----7------------|
|---------------------|

  C
|------|
|-5----|
|-5----|
|-5----|
|------|
|------|

Guitarra 2

|-------------------------------------|
|-------------------------------------|
|.---4---4---4---4----5---5---5---5--.|2 tiempos
|.-4---4---4---4----7---7---7---7----.|
|-------------------------------------|
|-------------------------------------|

|-------------------------------------|
|-------------------------------------|
|.---4---4---4---4----5---5---5---5--.|2 tiempos
|.-4---4---2---2----7---7---7---7----.|
|-------------------------------------|
|-------------------------------------|
  C
|------|
|-1----|
|-0----|
|-2----|
|-3----|
|------|

Puente

Guitarra 1 y 2

  Em  Bm  Am  Bm  Em  Bm
|-0---2---0---2---0---2---|
|-0---3---1---3---0---3---|
|-0---4---2---4---0---4---|
|-2---4---2---4---2---4---|
|-2---2---0---2---2---2---|
|-0---------------0-------|
                  *
*(aquí la guitarra 1 se puede
  tocar así XXX453)

Guitarra 1

  C      Am     D7
|--------5------5-------|
|-5------5------7-------|
|-5------5------5-------|
|-5------7------7-------|
|--------7------5-------|
|--------5--------------|

Guitarra 2

  C      Am     D7
|--------0------2-------|
|-1------1------1-------|
|-0------2------2-------|
|-2------2--------------|
|-3------0--------------|
|-----------------------|

Coro Final

Guitarra 1

|------7-------7-------7-------7-------5-------5----
|----8---8---8---8---7---7---7---7---5---5---5---5--
|.-7-------7-------7-------7-------5-------5--------
|.--------------------------------------------------
|---------------------------------------------------
|---------------------------------------------------

-----7-------7-----|
---7---7---7---7---|
-7-------7--------.|6 tiempos
------------------.|
-------------------|
-------------------|
 Fm
-5-------|
-6-------|
-5-------|
---------|
---------|
---------|

Guitarra 2
 
   G   Em  Am  Bm
|--3---0---0---2---|
|--0---0---1---3---|
|.-0---0---2---4--.|2 tiempos
|.-0---2---2---4--.|
|--2---2---0---2---|
|--3---0-----------|

|-----------------------|--(2 tiempos)----|
|-----------------------|-----------------|
|-11-9--12--11-9--17--7-|.-11--16--17--7-.|
|-----------------------|.---------------.|
|-9--7--10--9--7--15--5-|--9---14--15--5--|
|-----------------------|-----------------|

  Fm
|---------|
|---------|
|---------|
|-3-------|
|-3-------|
|-1-------|

Outro

Guitarra 1

|-----------------------------------|
|--------------------------9-9------|
|.-8-8-------------5-5-7-7-----7-7-.|10 tiempos
|.-----5-5-6-6-5-5-----------------.|
|-----------------------------------|
|-----------------------------------|

Guitarra 2 (ó teclado)

   Cm7     Fm6
|--3-------4-----|
|--4-------3-----|4 tiempos
|.-3-------5----.|al quinto
|.-5-------3----.|se mantiene en
|--3-------3-----|Cm7
|----------------|
comments
We did not receive enough feedback on this tab! Please rate:
print report bad tab
1 2 3 4 5
I want to post or [tab]
guest
You may want to rate the tab now too:
select rating
Please do not post tabs as comments. Select "correction" instead!