Oops, an error
Loading. Please wait.

Visita Bass Tab

version 1
version 1

Whole song

Interactive

8,041 views 12 this week
no commentswrite comment
1 2 3 4 5
excellent!
x 3
add to favorites
launch autoscroll
font size
0
reset
guitar tuner
Autoscroll
slow
fast
+/-
esc
set tempo
stop
Help us to improve Ultimate-Guitar.com Take our survey!
×
Author
Difficulty
enjambre-visita
 bass tab

intro con guitarra el bajo empieza AL 00:12

TE PIDO ME PERDONES .......
G-------------------------|
D-------------------------|    X2
A----7-7--------5-5-------|
E---------5-5--------7-7--|

luego hace un pequeño cambio

QUE NO ES GUSTO NO ES MI VOLUNTAD......
G------------------------|
D------------------------|    X2
A----77-7-5------5-5-----|
E----------8-7-5-----7-7-|

enseguida va esto
                     LA SEMANA ME PARTE EN DOS .....
G----------------    G--------------------------|
D----------------    D--------------------------|
A--5-555-5-55/9--    A-10-10---77-------55--55--|
E----------------    E--------------77----------|


TU VISITA ME REPARA CUANDO NOS CONECTA ENTONCES VIVO...........
G----------------------------|
D----------------------------|
A--10-10--77--------55-55----|
E-------------1/77-----------|

QUIERO QUE TE VENGAS A VIVIR TODOS LOS DIAS......
G-----------------9--------------------|
D--------12\7------9---9-9-------------|    X2
A--10-10-------77------------55-55-----|
E-------------------77-----------------|


despues vuelve al riff del principio

G-------------------------|
D-------------------------|   X2
A----7-7--------5-5-------|
E---------5-5--------7-7--|


ES EL VIERNES Y SU AMANECER.....
G-----------------|
D-----------------|    X2
A--7------5-------|
E-----5-------7---|


VIVE COMO SI ESTUVIERA AHI.......
G------------------------|
D------------------------|    X2
A----77-7-5------5-5-----|
E----------8-7-5-----7-7-|

despues de los dos tiempos va lo siguiente

G----------------------------|
D----------------------------|
A---55-555--55-555--55-55/9--|
E----------------------------|

LA SEMANA ME PARTE EN DOS .....
G--------------------------|
D--------------------------|
A-10-10---77-------55--55--|
E--------------77----------|

TU VISITA ME REPARA CUANDO NOS CONECTA ENTONCES VIVO...........
G----------------------------|
D----------------------------|
A--10-10--77--------55-55----|
E-------------1/77-----------|

QUIERO QUE TE VENGAS A VIVIR TODOS LOS DIAS......
G-----------------9--------------------|
D--------12\7------9---9-9-------------|    X2
A--10-10-------77------------55-55-----|
E-------------------77-----------------|

SOLO:
G--------------------------|
D--------------------------| X2
A--7-77--------5-55--------|
E--------5-55--------7-77--|

G------------------------------------|
D----------77-5-7/3------------------|
A--77-5-7------------55-3-5----------|
E----------------------------77-5-7--|

G------------------------------------|
D------------------------------------|
A--77777777--------55555555----------|
E----------55555555--------77777777--|

LA SEMANA ME PARTE EN DOS .....
G--------------------------|
D--------------------------|
A-10-10---77-------55--55--|
E--------------77----------|

TU VISITA ME REPARA CUANDO NOS CONECTA ENTONCES VIVO...........
G----------------------------|
D----------------------------|
A--10-10--77--------55-55----|
E-------------1/77-----------|

QUIERO QUE TE VENGAS A VIVIR TODOS LOS DIAS......
G-----------------9--------------------|
D--------12\7------9---9-9-------------|    X2
A--10-10-------77------------55-55-----|
E-------------------77-----------------|

OUTRO:
G--------------------------------------|
D--------------------------------------|   X5
A--10-10-10-10---7-7-77---------5-5-55-|
E-----------------------7-7-77---------|


G-----------------------------------------------|
D-----------------------------------------------|
A--10-10-10-10---7-7-77---------5-5-55-10-10/1--|
E-----------------------7-7-77------------------|

SUGERENCIAS a :
the-fool-traps@hotmail.com
Suggest correction
What's this?
You can suggest a correction to this tab. Community and Mods will review your correction and vote to approve or reject it.
comments
We did not receive enough feedback on this tab! Please rate:
print report bad tab
1 2 3 4 5
guest
You may want to rate the tab now too:
select rating
Please do not post tabs as comments. Select "correction" instead!