Oops, an error
Loading. Please wait.

Visita Tab

version 1
version 1

Intro

Whole song

Interactive

3,111 views 6 this week
no commentswrite comment
1 2 3 4 5
please rate
add to favorites
launch autoscroll
font size
0
reset
how to read this tab
guitar tuner
Tab Pro tools
  • play this tab
  • loop segment
  • change instrument
  • show fretboard
  • metronome
×
Best way to learn
"Visita"
Autoscroll
slow
fast
+/-
esc
set tempo
stop
Difficulty
Tuning
novice
A E A D F# B
Pista 1
     E  S Q    S E  S Q    S  
E||--------------------------|
B||--8----8------1----1------|
G||--9----9------2----2------|
D||--------------------------|
A||--------------------------|
E||--------------------------|


  E  S Q    S E  S Q    S  
--------------------------|
--7----7------3----3------|
--7----7------4----4------|
--------------------------|
--------------------------|
--------------------------|


  E  S Q    S E  S Q    S  
--------------------------|
--8----8------1----1------|
--9----9------2----2------|
--------------------------|
--------------------------|
--------------------------|


  E  S Q    S E  S Q    S  
--------------------------|
--7----7------3----3------|
--7----7------4----4------|
--------------------------|
--------------------------|
--------------------------|


  E  S Q    S E  S Q    S  
--------------------------|
--8----8------1----1------|
--9----9------2----2------|
--------------------------|
--------------------------|
--------------------------|


  E  S Q    S E  S Q    S  
--------------------------|
--7----7------3----3------|
--7----7------4----4------|
--------------------------|
--------------------------|
--------------------------|


  E  S Q    S E  S Q    S  
--------------------------|
--8----8------1----1------|
--9----9------2----2------|
--------------------------|
--------------------------|
--------------------------|


  E  S Q    S E  S Q    S  
--------------------------|
--7----7------3----3------|
--7----7------4----4------|
--------------------------|
--------------------------|
--------------------------|


  S S S S E  S S S S S Q    S  
------------------------------|
----------3--5-3-2------------|
------2-4----------5-4--------|
-----------------------4------|
------------------------------|
------------------------------|


  S S S S E  E  E  Q    E   
---------------------------|
----------3--5-------------|
------2-4-------5--4-------|
---------------------------|
---------------------------|
---------------------------|


  S S S S E  S S S S S Q    S  
------------------------------|
----------3--5-3-2------------|
------2-4----------5-4--------|
-----------------------4------|
------------------------------|
------------------------------|


  S S S S S S S S S S S S  S  S  S  S  
--------------------------------------|
--------------------------------------|
--4-4-4-4-5-5-5-5-7-7-7-7-11-11-11-11-|
--------------------------------------|
--------------------------------------|
--------------------------------------|


   S  S S S S S S S  S  S S S S S S S  
--------------------------------------|
--12-12-------------12-12-------------|
--12-12-------------12-12-------------|
--12-12-------------12-12-------------|
--10-10-------------10-10-------------|
--------------------------------------|


   S  S S S S S S S  S  S S S  S  S S S  
----------------------------------------|
--12-12---------------------------------|
--12-12---------------------------------|
--12-12-------------12-12-----12-12-----|
--10-10-------------12-12-----12-12-----|
--------------------10-10-----10-10-----|


   S  S S S S S S S  S  S S S S S S S  
--------------------------------------|
--12-12-------------12-12-------------|
--12-12-------------12-12-------------|
--12-12-------------12-12-------------|
--10-10-------------10-10-------------|
--------------------------------------|


   S  S S S S S S S  S  S S S  S  S S S  
----------------------------------------|
--12-12---------------------------------|
--12-12---------------------------------|
--12-12-------------12-12-----12-12-----|
--10-10-------------12-12-----12-12-----|
--------------------10-10-----10-10-----|


   S  S S S S S S S  S  S S S S S S S  
--------------------------------------|
--12-12-------------12-12-------------|
--12-12-------------12-12-------------|
--12-12-------------12-12-------------|
--10-10-------------10-10-------------|
--------------------------------------|


   S  S S S S S S S  S  S S S  S  S S S  
----------------------------------------|
--12-12---------------------------------|
--12-12---------------------------------|
--12-12-------------12-12-----12-12-----|
--10-10-------------12-12-----12-12-----|
--------------------10-10-----10-10-----|


   S  S S S S S S S  S  S S S S S S S  
--------------------------------------|
--12-12-------------12-12-------------|
--12-12-------------12-12-------------|
--12-12-------------12-12-------------|
--10-10-------------10-10-------------|
--------------------------------------|


   S  S S S S S S S  S  S S S  S  S S S  
----------------------------------------|
--12-12---------------------------------|
--12-12---------------------------------|
--12-12-------------12-12-----12-12-----|
--10-10-------------12-12-----12-12-----|
--------------------10-10-----10-10-----|

comments
We did not receive enough feedback on this tab! Please rate:
print report bad tab
1 2 3 4 5
I want to post or [tab]
guest
You may want to rate the tab now too:
select rating
Please do not post tabs as comments. Select "correction" instead!