Oops, an error
Loading. Please wait.

A Fistful Of Dollars Tab

version 1
version 1

Intro

Whole song

40,031 views 66 this week
2 commentsread comments
1 2 3 4 5
not so good
x 5
add to favorites
launch autoscroll
font size
0
reset
how to read this tab
guitar tuner
Tab Pro tools
  • play this tab
  • loop segment
  • change instrument
  • show fretboard
  • metronome
Autoscroll
slow
fast
+/-
esc
set tempo
stop
A Fistful of Dollars
by Ennio Morricone


Tablature by Aaron Slodov

e|---------------------------------------------------|
b|-------------5---6---8---6---5---3---1-------1---3-|
g|-----5---7-------------------------------2---------|
D|---------------------------------------------------|
A|---------------------------------------------------|
E|---------------------------------------------------|

e|---------------------------------------------------|
b|-------------5---6---8---6---5---3---1-------1-----|
g|-----5---7-------------------------------2-------2-|
D|---------------------------------------------------|
A|---------------------------------------------------|
E|---------------------------------------------------|

e|-------------------------------------------------5-|
b|-------------5---6---8---6---5---3---5---6---8-----|
g|-----5---7-----------------------------------------|
D|---------------------------------------------------|
A|---------------------------------------------------|
E|---------------------------------------------------|

e|-----8---5------------9---5-----------------------|
b|-------------8---5------------8---5---------------|
g|---------------------------------------5---7------|
D|--------------------------------------------------|
A|--------------------------------------------------|
E|--------------------------------------------------|

e|--------------------------------------------------|
b|----------5---6------------------3----------------|
g|-----7----------------7----5----------------------|
D|--------------------------------------------------|
A|--------------------------------------------------|
E|--------------------------------------------------|
comments
print report bad tab
2 comments total.
0 reply
daft_era19 wrote on October 6 2005, 02:59 pm

Ennio Morricone rules

0 reply
theokwilderbeas wrote on April 18 2010, 08:01 am

e|-----8---5------------10--5-----------------------|
b|-------------8---6------------8---6----6---8------|
g|--------------------------------------------------|
D|--------------------------------------------------|
A|--------------------------------------------------|
E|--------------------------------------------------|

I want to post or [tab]
guest
You may want to rate the tab now too:
select rating
Please do not post tabs as comments. Select "correction" instead!