Oops, an error
Loading. Please wait.

A Pistol For Ringo Chords

40 views 3 this week
no commentswrite comment
1 2 3 4 5
3 more votes to show rating
add to favorites
launch autoscroll
font size
0
reset
transpose
0
reset
simplify chords
display chords
guitar tuner
Autoscroll
slow
fast
+/-
esc
set tempo
stop
Help us to improve Ultimate-Guitar.com Take our survey!
×
Author
Difficulty
About this tab version
Full chords and solo for vocal version. Was this info helpful? Yes No
A Pistol For Ringo

Picking pattern for maj7 chords (shown here for the Gmaj7):

e|------------------------|
B|-------12-------12------|
G|-----11--11--------11---|
D|------------------------|
A|--10---------10---------|
E|------------------------|

[Verse 1]

Gmaj7                         Fmaj7
Countries, that know only the springtime
         Gmaj7                               Cmaj7
And your green fields, with your scentin' of hay
     Bm              G            C
Know Ringo, with his angel face
      G              D               G
And a woman, who was waitin' for his return

[Bridge]

          Bm
Cross the canyons he laughed
         Em         Bm
Down the valley the death
       D             G        A7
And he left behind a river of blood
        Bm
For his life was guided
     Em     Bm
By a crude law
G             A7          D
He only had a mind to get gold

[Verse 2]

Gmaj7                       Fmaj7
Rivers, you know how is the history
        Gmaj7                     Cmaj7
And his laughin' was a presage of death
Bm            G           C
Ringo, had an angel face
        G          D
But whenever Ringo laughed,
      G          C
Ringo fired


[Solo]

e|-----------------------------------------------0-------------------|
B|-0-0----0-1-0-----------------0-----0-1-0--------------------------|
G|---------------2-0-2-2----0-2-------------2-0----------------------|
D|--------------------------------0----------------------------------|
A|-------------------------------------------------------------------|
E|-------------------------------------------------------------------|

[Coda]

Bm           G          C
Ringo had an angel face
        G          D
But whenever Ringo laughed,
      G        C      G
Ringo fired
Suggest correction
Give kudos to tab author, rate the tab!
1 2 3 4 5
comments
print report bad tab
guest
You may want to rate the tab now too:
select rating
Wanna post a correction for this tab? Suggest correction