Oops, an error
Loading. Please wait.

Deep Deep Down Tab

1,556 views 1 this week
no commentswrite comment
1 2 3 4 5
please rate
add to favorites
launch autoscroll
font size
0
reset
how to read this tab
guitar tuner
Autoscroll
slow
fast
+/-
esc
set tempo
stop
Help us to improve Ultimate-Guitar.com Take our survey!
×
Contributor
Difficulty
novice
Deep Deep Down
By Ennio Morricone (from Danger: Diabolik!)

e|-----------2-s-5-s-9--s---------------------------------------------------|
B|--------------------------------------------------------------------------|
G|--------------------------------------------------------------------------|
D|--------------------------------------------------------------------------|
A|--------------------------------------------------------------------------|
E|--------------------------------------------------------------------------|

  DIABOLIK! Ahh-ahh  Ahhhh Ahh (diabolikal laughter, gunshots, etc.)


   Dmaj7
e|---5---5------------------------------------------------------------------|
B|-------------7---7--------------------------------------------------------|
G|-----------------6--------------------------------------------------------|
D|---------------------5p4---5p4---4----------------------------------------|
A|-------------------------5-----5------------------------------------------|
E|--------------------------------------------------------------------------|

   Deep deep down (2x)


   N.C.      Dmaj7                  D#maj7 Dmaj7  Fmaj7 Dmaj7  Fmaj7 Dmaj7
e|--------------------------------------------------5-----------5-----------|
B|--------5---5h7----------------------8----7------------7-------------7----|
G|--7-----------------------------------------------------------------------|
D|-----------------5p4---5p4---4--------------------------------------------|
A|---------------------5-----5----------------------------------------------|
E|--------------------------------------------------------------------------|

   Deep deep down                      lyingly     hungrily     hauntingly 



                                 Gmaj7
e|--------------------------------------------------------------------------|
B|------------------5-----5-------------------------------------------------|
G|---------------------7------7---4-----------------------------------------|
D|-5p4---5p4---4-------------------------5p4---5p4---4----------------------|
A|-----5-----5-------------------------------5-----4------------------------|
E|--------------------------------------------------------------------------|

                   All I want is you

                           Dmaj7    Gmaj7                       Dmaj7    Gmaj7
e|------------------------------5-------------------------------------5-----|
B|-----5-----5------5------5h7--------------5-----5------5------5h7---------|
G|--7-----7-----7------7-----------------7-----7-----7------7---------------|
D|--------------------------------------------------------------------------|
A|--------------------------------------------------------------------------|
E|--------------------------------------------------------------------------|

   And every minute of the day time     And every moment of the night time


                          Dmaj7
e|------------------------7p5h7--5--4--5--4--5------------------------------|
B|-----5-----5------5-------------------------------------------------------|
G|--7-----7-----7------7----------------------------------------------------|
D|--------------------------------------------------------------------------|
A|--------------------------------------------------------------------------|
E|--------------------------------------------------------------------------|

   And every second of my life time ay ay ay time


       Bm7                  Cmaj7                  Dmaj7
e|--------------------------------------------------------------------------|
B|--7--7--5--------------5--5------------------5----5h7---------------------|
G|-------------7--6--7--------------------7---------------------------------|
D|--------------------------------------------------------------------------|
A|--------------------------------------------------------------------------|
E|--------------------------------------------------------------------------|

   I'm longing to be loving you          Deep deep down


   Dmaj7           Gmaj7           Dmaj7           Gmaj7
e|-5----5----------10---10---------5----5----------10---10------------------|
B|-----------7----------------10-------------7---------------10-------------|
G|--------------------------------------------------------------------------|
D|--------------------------------------------------------------------------|
A|--------------------------------------------------------------------------|
E|--------------------------------------------------------------------------|

   Deep deep down  Deep deep down  Deep deep down  Deep deep down (2x)
   
    (On second time, also play the 2-s-5-s-9-s-5 that opens the song)


   Dmaj7            Gmaj7                    Dmaj7

e|--------------------------------------------------------------------------|
B|--------------------------------------------------------------------------|
G|--7--7-7--7---------------7--7--6-----9----7------------------------------|
D|--------------7----9------------------------------------------------------|
A|--------------------------------------------------------------------------|
E|--------------------------------------------------------------------------|

   You only you deep down   In my heart deep down


                   Gmaj7                   Bm7   Cmaj7
e|--------------------------------------------------------------------------|
B|--------------------------------------------------------------------------|
G|--7--7---7----------------7--7--6---9----7-----s9-------------------------|
D|-------------7----9-------------------------------------------------------|
A|--------------------------------------------------------------------------|
E|--------------------------------------------------------------------------|

   In my blood deep down    Very deep deep dow-  -own


   Fmaj7              Bbmaj7                   Fmaj7
e|--------------------------------------------------------------------------|
B|--------------------------------------------------------------------------|
G|-10-10--10--10---------------10-10-9----12---10---------------------------|
D|----------------10---12---------------------------------------------------|
A|--------------------------------------------------------------------------|
E|--------------------------------------------------------------------------|

   No one but you deep down    In my mind deep down


                 Bbmaj7                       Dm7   D#maj7
e|--------------------------------------------------------------------------|
B|--------------------------------------------------------------------------|
G|-10-10--10--10---------------10-10-9----12---10----s12--------------------|
D|----------------10---12---------------------------------------------------|
A|--------------------------------------------------------------------------|
E|--------------------------------------------------------------------------|

   Only you deep down          Very deep deep dow-  -own



   Amaj7             Dmaj7                  Amaj7
e|--5--5--5--5--------------5--5--4----7----5-------------------------------|
B|--------------5----7------------------------------------------------------|
G|--------------------------------------------------------------------------|
D|--------------------------------------------------------------------------|
A|--------------------------------------------------------------------------|
E|--------------------------------------------------------------------------|

   You only you deep down   In my mind deep down



                     Dmaj7                  A                N.C.
e|--5--5--5--5--------------5--5--4----7----5p4---4h5p4---4--5p4---4h5p4----|
B|--------------5----7--------------------------5-------5--------5-------5--|
G|--------------------------------------------------------------------------|
D|--------------------------------------------------------------------------|
A|--------------------------------------------------------------------------|
E|--------------------------------------------------------------------------|

   In my heart deep down   In my blood deep down


e|--3p2---2h3p2---2--3p2---2h3p2--------------------------------------------|
B|------3-------3--------3-------3------------------------------------------|
G|--------------------------------------------------------------------------|
D|--------------------------------------------------------------------------|
A|--------------------------------------------------------------------------|
E|--------------------------------------------------------------------------|

    (Repeat again, beginning with first verse and continue through fade)

For more tabs from secret agent films and TV:
http://www.mister8.com

Suggest correction new What's this?
You can suggest a correction to this tab. Community and Mods will review your correction and vote to approve or reject it.
comments
We did not receive enough feedback on this tab! Please rate:
print report bad tab
1 2 3 4 5
guest
You may want to rate the tab now too:
select rating
Please do not post tabs as comments. Select "correction" instead!