Oops, an error
Loading. Please wait.

For A Few Dollars More Tab

version 1
version 1

Whole song

Interactive

43,673 views 90 this week
no commentswrite comment
1 2 3 4 5
x 11
add to favorites
launch autoscroll
font size
0
reset
how to read this tab
guitar tuner
Autoscroll
slow
fast
+/-
esc
set tempo
stop
Help us to improve Ultimate-Guitar.com Take our survey!
×
Difficulty
intermediate
FOR A FEW DOLLARS MORE
                         As recorded by Ennio Morricone


Gtr I (E A D G B E) - 'Untitled'

 4/4
  Gtr I
  E H.    Q H.    E H.    Q H.
|---------------------------------|
|---3-----1-----------------------|
|-2---------2-----0-2-----0-------|
|---------------------------0-----|
|---------------------------------|
|---------------------------------|


  E Q S S S S E E   E     E Q S S S S E   E E
|-----------------|---------------------|--------|
|---3-3-5-3-1-3-5-|-6-------3-3-5-3-1-3-|-1------|
|-2---------------|-------2-------------|---2----|
|-----------------|---------------------|--------|
|-----------------|---------------------|--------|
|-----------------|---------------------|--------|


                                              Fine
  E Q S S S S E E   E E E E H  E E Q H.   E H W
|-----------------|------------------------------||----|
|---3-3-5-3-1-3-5-|-6-3-1-0-1-------------------o||----|
|-2---------------|------------2-0-0----------2--||----|
|-----------------|------------------2----0-0----||----|
|-----------------|-----------------------------o||----|
|-----------------|------------------------------||----|


    E S S S S E E W            E S S S S E E Q   E E  E E E E H
||----------------5-------||---------------5-8---5------------1-|
||o---3-3-3-3-3-6--------o||-----6-6-6-6-6---------6--------3---|
||--2---------------------||---5----------------------3-3-3-----|
||------------------------||------------------------------------|
||o----------------------o||------------------------------------|
||------------------------||------------------------------------|


                         D.C. al Fine
  E E S S E H    H   S S W
|-1---------1----3---1-------------------|
|---3-----3------------3-3---------------|
|-----3-3--------------------------------|
|----------------------------------------|
|----------------------------------------|
|----------------------------------------|
                              W


Duration Legend
---------------
W - whole; H - half; Q - quarter; E - 8th; S - 16th; T - 32nd; X - 64th; a - acciaccatura
+ - note tied to previous; . - note dotted; .. - note double dotted
Uncapitalized letters represent notes that are staccato (1/2 duration)
Irregular groupings are notated above the duration line
Duration letters will always appear directly above the note/fret number it represents the
duration for.  Duration letters with no fret number below them represent rests.  Multi-
bar rests are notated in the form Wxn, where n is the number of bars to rest for.  Low
melody durations appear below the staff


Misc Legend
-----------
 |  - bar
||  - double bar
||o - repeat start
o|| - repeat end
*|  - double bar (ending)
 :  - bar (freetime)
 $  - Segno
 &  - Coda
Tempo markers -  = BPM(8/16=s8/s16), where s8 = swing 8ths, s16 = swing 16ths
Suggest correction
comments
print report bad tab
guest
You may want to rate the tab now too:
select rating
Wanna post a correction for this tab? Suggest correction