Oops, an error
Loading. Please wait.

Gabriels Oboe Tab

version 1
version 1

Whole song

8,290 views 24 this week
no commentswrite comment
1 2 3 4 5
2 more votes to show rating
add to favorites
launch autoscroll
font size
0
reset
how to read this tab
guitar tuner
backing track
0:00
0:00
×
Best way to learn
"Gabriels Oboe"
Autoscroll
slow
fast
+/-
esc
set tempo
stop
Here is melody "Gabriel's Oboe" from The Mission.  Please Enjoy

e|--------------------------------------------------------------5-----------------------------------|
B|--------------------------------------------------------------------------------------------0-----|
G|-----------------------------------------------------------------------------------2--------------|
D|--------7--------------------------------------7--------------------------------------------------|
A|-----------------------------------7--------------------------------------------------------------|
E|-----------------------5--------------------------------------------------------------------------|


e|--------------------------------------------------------------------------------------------------|
B|-----------------------------------------------------------------------------------3-----------5--|
G|-----2--------0--------2--------------2--------------------------2--------------------------------|
D|--------------------------------------------------------------------------------------------------|
A|--------------------------------------------------------------------------------------------------|
E|--------------------------------------------------------------------------------------------------|



e|--------------------------------------------------------------------------------------------------|
B|-----3-----2-----3-----2--------3--------2--------0--------0--------------------------------------|
G|-----------------------------------------------------------------------2--------2--------2--------|
D|--------------------------------------------------------------------------------------------------|
A|--------------------------------------------------------------------------------------------------|
E|--------------------------------------------------------------------------------------------------|


e|--------------------------------------------------------------------------------0-----------------|
B|--------------------------------------------------------------------3--------------------3--------|
G|-----------------------------2--------------------------2-----------------------------------------|
D|-----0--------------------------------------2-----------------------------------------------------|
A|--------------------------------------------------------------------------------------------------|
E|--------------------------------------------------------------------------------------------------|


e|--------------------------------------------------------------------------------------------------|
B|--2-----------3--------2--------------0--------------------------------------0-----------3--------|
G|-----------------------------------------------------0--------------------------------------------|
D|-----------------------------------------------------------------4--------------------------------|
A|--------------------------------------------------------------------------------------------------|
E|--------------------------------------------------------------------------------------------------|


e|--------------------------------------------------------------------------------------------------|
B|-----2-----------0--------------------------------------------------------------------------------|
G|-----------------------------------2-----------0-----------2-----------2-----------------------2--|
D|-----------------------------------------------------------------------------------4--------------|
A|--------------------------------------------------------------------------------------------------|
E|--------------------------------------------------------------------------------------------------|


e|--------------------------------------------------2-----------0-----------0-----------------------|
B|--------------------------------------------------------------------------------------3-----------|
G|--------------------------2-----------------------------------------------------------------------|
D|--------------2-----------------------------------------------------------------------------------|
A|--------------------------------------------------------------------------------------------------|
E|--------------------------------------------------------------------------------------------------|


e|-----------------------------------------------2--------------------------------------------------|
B|--3-----------------------------------------------------5--------5--------3--------3--------------|
G|-----------------------------2--------------------------------------------------------------------|
D|-----------------4--------------------------------------------------------------------------------|
A|--------------------------------------------------------------------------------------------------|
E|--------------------------------------------------------------------------------------------------|


e|--------------------------------------------------------------------------------------------------|
B|--3--------------------------2-----3-----2-----3-----------0-----------------------------0--------|
G|-----------------2--------------------------------------------------------0-----------------------|
D|--------------------------------------------------------------------------------------------------|
A|--------------------------------------------------------------------------------------------------|
E|--------------------------------------------------------------------------------------------------|


e|-----------------------------3-----------------------3-----------2-----------2--------------------|
B|-----0-----------3--------------------------------------------------------------------------------|
G|--------------------------------------------------------------------------------------------2-----|
D|--------------------------------------------------------------------------------------------------|
A|--------------------------------------------------------------------------------------------------|
E|--------------------------------------------------------------------------------------------------|


e|--------------------------7--------------7-----------------------------7--------------------------|
B|--------------------------------------------------------8-----------------------------7-----------|
G|-----------7--------------------------------------------------------------------------------------|
D|--------------------------------------------------------------------------------------------------|
A|--------------------------------------------------------------------------------------------------|
E|--------------------------------------------------------------------------------------------------|


e|--------------------------------------------------------------------------------------------------|
B|--10----------------10----------------------------------------------------------------10----------|
G|-----------------------------------9--------------9--------------9--------------------------------|
D|--------------------------------------------------------------------------------------------------|
A|--------------------------------------------------------------------------------------------------|
E|--------------------------------------------------------------------------------------------------|


e|--------------------------------------------------------------------------------------------------|
B|-----------------------------------------------------------------------0--------------------------|
G|-----9--------------9--------------9--------------------------2-----------------2--------0--------|
D|--------------------------------------------------------------------------------------------------|
A|--------------------------------------------------------------------------------------------------|
E|--------------------------------------------------------------------------------------------------|


e|--------------------------------------------------------------------------------------------------|
B|-----------------------------------------------------------------------3-----------5-----3-----2--|
G|--2-----------------------2--------------------------2--------------------------------------------|
D|--------------4-----------------------------------------------------------------------------------|
A|-----------------------------------------4--------------------------------------------------------|
E|--------------------------------------------------------------------------------------------------|


e|--------------------------------------------------------------------------------------------------|
B|-----3-----2--------3--------2--------0--------0--------------------------------------------------|
G|-----------------------------------------------------------2--------2--------2--------------------|
D|--------------------------------------------------------------------------------------------------|
A|-----------------------------------------------------------------------------------------4--------|
E|--------------------------------------------------------------------------------------------------|


e|--------------------------------------------------------------------------------0-----------------|
B|-----------------------------------------------------------------------------------------3--------|
G|-----------------------2--------------------------2-----------------------------------------------|
D|--0-----------------------------------------------------------------------------------------------|
A|--------------------------------------0--------------------4--------------------------------------|
E|--------------------------------------------------------------------------------------------------|


e|--------------------------------------------------------------------------------------------------|
B|--2-----------3--------2--------------0-----------------------------0-----------3-----------2-----|
G|-----------------------------------------------------0--------------------------------------------|
D|--------------------------------------------------------------------------------------------------|
A|--------------------------------------------------------------------------------------------------|
E|--------------------------------------------------------------------------------------------------|


e|--------------------------------------------------------------------------------------------------|
B|--------0-----------------------------------------------------------------------------------------|
G|--------------------------2-----------0-----------2-----------2--------------2--------------------|
D|--------------------------------------------------------------------------------------------2-----|
A|--------------------------------------------------------------------------------------------------|
E|--------------------------------------------------------------------------------------------------|


e|--------------------------------2-----------0-----------0-----------------------------------------|
B|--------------------------------------------------------------------3-----------------3-----------|
G|--------2-----------------------------------------------------------------------------------------|
D|-----------------------------------------------------------------------------2--------------------|
A|--------------------------------------------------------------------------------------------------|
E|--------------------------------------------------------------------------------------------------|


e|-----------------------------------------2--------------------------------------------------------|
B|--------------------------------------------------5--------5--------3--------3--------------------|
G|-----------------2--------------------------------------------------------------------------------|
D|-----4--------------------2-----------------------------------------------------------------------|
A|-----------------------------------------------------------------------------------------5--------|
E|--------------------------------------------------------------------------------------------------|


e|--------------------------------------------------------------------------------------------------|
B|-----------3--------------------------2-----3-----2-----3-----------0-----------------------------|
G|--------------------------2-----------------------------------------------------------------------|
D|--2--------------------------------------------------------------------------------4-----------0--|
A|--------------------------------------------------------------------------------------------------|
E|--------------------------------------------------------------------------------------------------|


e|-----------------------------------------------------3-----------------------3-----------2--------|
B|-----------------0-----------0-----------3--------------------------------------------------------|
G|--------------------------------------------------------------------------------------------------|
D|--------2-----------------------------------------------------------------------------------------|
A|--------------------------------------------------------------------------------------------------|
E|--------------------------------------------------------------------------------------------------|


e|-----2-----------------------------------------------------------7--------------7-----------------|
B|-----------------------------------0--------------3-----------------------------------------10----|
G|-----------------0--------------------------------------------------------------------------------|
D|--------------------------------------------------------------------------------------------------|
A|--------------------------------------------------------------------------------------------------|
E|--------------------------------------------------------------------------------------------------|


e|--------------------------------7--------------------------5-----------------5--------------------|
B|--------8-----------7-----------------------------------------------------------------------5-----|
G|--------------------------------------------------------------------------------------------------|
D|--------------------------------------------------------------------------------------------------|
A|--------------------------------------------------------------------------------------------------|
E|--------------------------------------------------------------------------------------------------|


e|--------------------------3-----------2-----------------------0-----------------------------------|
B|--------------------------------------------------------------------------------------------------|
G|-----------2-----------------------------------------------------------------0--------------2-----|
D|--------------------------------------------------------------------------------------------------|
A|--------------------------------------------------------------------------------------------------|
E|--------------------------------------------------------------------------------------------------|


e|--------------------------------------------------------------------------------------------------|
B|-----------7--------------------7-----------------------------------------------------7-----------|
G|--------------------------------------------------------------------------------------------------|
D|-----------------------------------------------4-----------------------4--------------------------|
A|-----------------------------------------------------------7--------------------------------------|
E|--------------------------------------------------------------------------------------------------|


e|--------------------3--------------2--------------0--------------0--------------------------------|
B|--3--------------------------------------------------------------------------3-----------------3--|
G|--------------------------------------------------------------------------------------------------|
D|--------------------------------------------------------------------------------------------------|
A|--------------------------------------------------------------------------------------------------|
E|--------------------------------------------------------------------------------------------------|


e|-----------------------------------------------------------5--------7--------5--------------------|
B|--------------------------------------------------------------------------------------8--------10-|
G|--------------------------------------------------------------------------------------------------|
D|--------------------------------7-----------------------------------------------------------------|
A|-----------------0--------------------------------------------------------------------------------|
E|--------------------------------------------------------------------------------------------------|


e|--------------------------------------------------------------------10----------12----10----9-----|
B|-----------------------10-------------------------10----------------------------------------------|
G|--------------------------------------------------------------------------------------------------|
D|--------------------------------------------------------------------------------------------------|
A|-----------9--------------------------------------------------------------------------------------|
E|--------------------------------------------------------------------------------------------------|


e|--10----9--------10-------9--------7--------7-----------------------------------------------------|
B|--------------------------------------------------------10-------10-------10----------------------|
G|--------------------------------------------------------------------------------------6--------7--|
D|--------------------------------------------------------------------------------------------------|
A|--------------------------------------------------------------------------------------------------|
E|--------------------------------------------------------------------------------------------------|


e|-----------------------------------------------------------------10----------12-------10-------9--|
B|--------------------10-------------------------10-------------------------------------------------|
G|--------------------------------------------------------------------------------------------------|
D|--------------------------------------------------------11----------------------------------------|
A|--------------------------------------------------------------------------------------------------|
E|--------------------------------------------------------------------------------------------------|


e|-----------10-------9--------------7-----------------------------7-----------10----------9--------|
B|--------------------------------------------------0-----------------------------------------------|
G|--------------------------------------------------------------------------------------------------|
D|--------------------------------------------------------------------------------------------------|
A|--------------------------------------------------------------------------------------------------|
E|--------------------------------------------------------------------------------------------------|


e|-----7--------------------------------------------------------------------------------------------|
B|-----------------------10----------8-----------10----------10-------------10----------------------|
G|-----------------------------------------------------------------------------------------9--------|
D|--------------------------------------------------------------------------------------------------|
A|--------------------------------------------------------------------------------------------------|
E|--------------------------------------------------------------------------------------------------|


e|-----------------------------14----------12----------12----------10----------10-------------------|
B|-----10-------------------------------------------------------------------------------------7-----|
G|--------------------------------------------------------------------------------------------------|
D|--------------------------------------------------------------------------------------------------|
A|--------------------------------------------------------------------------------------------------|
E|--------------------------------------------------------------------------------------------------|


e|--------------------------------14-------12-------12-------10-------10----------------------------|
B|--------10----------------------------------------------------------------------------------------|
G|---------------------------------------------------------------------------------------9----------|
D|--------------------------------------------------------------------------------------------------|
A|--------------------------------------------------------------------------------------------------|
E|--------------------------------------------------------------------------------------------------|


e|--10-------------------------9-----10----9-----10----------7--------------------------------------|
B|-----------------7--------------------------------------------------------7-----------------------|
G|--------------------------------------------------------------------------------------7--------9--|
D|--------------------------------------------------------------------------------------------------|
A|--------------------------------------------------------------------------------------------------|
E|--------------------------------------------------------------------------------------------------|


e|--------7-----------7-----------10----------15----------------------15----------14----------14----|
B|--------------------------------------------------------------------------------------------------|
G|--------------------------------------------------------------------------------------------------|
D|--------------------------------------------------------------------------------------------------|
A|--------------------------------------------------------------------------------------------------|
E|--------------------------------------------------------------------------------------------------|


e|-----------------------------------------10-------------7--------------7-------------------------|
B|-----------------10-------12------------------------------------------------------10----------8--|
G|--------12---------------------------------------------------------------------------------------|
D|-------------------------------------------------------------------------------------------------|
A|-------------------------------------------------------------------------------------------------|
E|-------------------------------------------------------------------------------------------------|


e|--------------------------------------------------5-----------------5-----------------------------|
B|-----------7-----------5--------------5--------------------------------------------5--------------|
G|--------------------------------------------------------------------------------------------------|
D|--------------------------------------------------------------------------------------------------|
A|--------------------------------------------------------------------------------------------------|
E|--------------------------------------------------------------------------------------------------|


e|-----------------15----------14----------------------12-------------------------------------------|
B|-----------------------------------------------------------------------------------10-------------|
G|--7-----------------------------------------------------------------12----------------------------|
D|--------------------------------------------------------------------------------------------------|
A|--------------------------------------------------------------------------------------------------|
E|--------------------------------------------------------------------------------------------------|


e|--14-------------------14----------------------------------------------------14-------------------|
B|--------------------------------------------------------------------------------------------------|
G|--------------------------------------11-------------11-------------------------------------------|
D|-----------------------------------------------------------------14-------------------------------|
A|--------------------------------------------------------------------------------------------------|
E|--------------------------------------------------------------------------------------------------|


e|-----------------14----------------------15-------------14-------------------12-------------------|
B|--------------------------------------------------------------------------------------------------|
G|--11----------------------------------------------------------------------------------------9-----|
D|--------------------------------------------------------------------------------------------------|
A|--------------------------------------------------------------------------------------------------|
E|--------------------------------------------------------------------------------------------------|


e|-----------12-------------------------10----------------------10----|
B|--------------------------------------------------------------------|
G|--------------------------9-----------------------------------------|
D|--------------------------------------------------------------------|
A|--------------------------------------------------------------------|
E|--------------------------------------------------------------------|
Suggest correction
Give kudos to tab author, rate the tab!
1 2 3 4 5
comments
print report bad tab
guest
You may want to rate the tab now too:
select rating
Wanna post a correction for this tab? Suggest correction