Oops, an error
Loading. Please wait.

Il Triello Tab

16,142 views 18 this week
3 commentsread comments
1 2 3 4 5
x 4
add to favorites
launch autoscroll
font size
0
reset
how to read this tab
guitar tuner
Autoscroll
slow
fast
+/-
esc
set tempo
stop
Help us to improve Ultimate-Guitar.com Take our survey!
×
Il Triello (The Trio) from The Good The Bad & The Ugly
Tabbed by ScreamOfSilence

I made some changes. I added the final trumpet’s part and adapted some instrument to the guitar. The tab is not that hard to read. You have just to listen to the music. 


Instrument adapted to guitar

E|-------------------------------------------|
B|-------------------------------------------|
G|-------------------------------------------|
D|-12~--14-14~--12~--14-14~-12~--15-15~--12~-|
A|-------------------------------------------|
E|-------------------------------------------|

Instrument adapted to guitar

E|-------------------------------------------|
B|-------------------------------------------|
G|-------------------------------------------|
D|-12~--15-15~--12~--15-15~-12~--17-17~--12~-|
A|-------------------------------------------|
E|-------------------------------------------|



Acoustic guitar part

e|---------------------|
B|---------------------|play it 12 times
G|---------------------|
D|--------2-3-0--------|
A|----0----------------|
E|---------------------|

e|---------------|
B|---------------|then play this in the final
G|---------------|
D|--------0~-----|
A|----0----------|
E|---------------|


Instrument adapted to guitar

E|-------------------------------|
B|-------------------------------|
G|-------------------------------|
D|-12~--14-14~--12~--14-14~-12~--|
A|-------------------------------|
E|-------------------------------|



Acoustic guitar part

e|--------------------|play it 12 times
B|--------------------|
G|--------------------|
D|--------2-3-0-------|
A|----0---------------|
E|--------------------|

e|---------------|
B|---------------|then play this in the final
G|---------------|
D|--------0~-----|
A|----0----------|
E|---------------|



Instrument adapted to guitar

E|---------------------------------------|
B|---------------------------------------|
G|---------------------------------------|
D|-12~--15-15~--12~--15-15~-12-------10~-|
A|---------------------------------------|
E|---------------------------------------|


Acoustic guitar part

e|---------------|play it 12 times
B|---------------|
G|---0-2---------|
D|---------3-----|
A|-3-------------|
E|---------------|

e|---------------|
B|---------------|then play this in the final
G|---------------|
D|--------0~-----|
A|----3----------|
E|---------------|



Instrument adapted to guitar

E|-------------------------------------|
B|-------------------------------------|
G|-------------------------------------|
D|-12~--14-14~--12-12~--15-15~-12--17~-|
A|-------------------------------------|
E|-------------------------------------|


Acoustic guitar part

e|----------------|
B|----------------|play it 12 times
G|----------------|
D|---0-2----------|
A|---------3------|
E|-3--------------|

e|----------------------------|then play this in the final
B|----------------------------|
G|----------------------------|
D|----------------------------|
A|-----0------0-0-0---0--0~---|
E|--3-------------------------|


Instrument adapted to guitar

E|-----------------------------------------------|
B|-----------------------------------------------|
G|-----------------------------------------------|
D|-12~---------11~------------14~------------9~~-|
A|-----------------------------------------------|
E|-----------------------------------------------|


Acoustic guitar part

e|--------------------|
B|--------------------|play it 11 times
G|-----2-4-0----------|
D|--0-----------------|
A|--------------------|
E|--------------------|

e|---------------------|then play this in the final
B|---------------------|
G|---------------------|
D|-0-------0~----------|
A|----5----------------|
E|---------------------|


Instrument adapted to guitar

E|--------------------------------------|
B|--------------------------------------|
G|--------------------------------------|
D|-12~--14-14~--12-12~--15-15~-12--12~--|
A|--------------------------------------|
E|--------------------------------------|



Acoustic guitar part

e|---------------------|
B|----------3----------|play it 12 times
G|------5-------3------|
D|-3-------------------|
A|---------------------|
E|---------------------|


e|----------------------------------------|
B|-----------------------------2----------|then play this in the final
G|-----------------------------2----------|
D|-3---------------------2-----2----------|
A|--------0~--------0----------0----------|
E|----------------------------------------|



Instrument adapted to guitar

E|-------------------------17------|
B|----------------------17---------|
G|--------14----14---18------------|
D|-14-14-----14--------------------|
A|---------------------------------|
E|---------------------------------|




Below are the chords you have to play to follow the trumpet. 

For playing the rhythm you have just to listen to the audio. It’s not that hard.



   Dm     G      F      C      A    A#    E      D
e|-5------3------1------X------5----6-----0------2---|
B|-6------3------1------5------5----6-----0------3---|
G|-7------4------2------5------6----7-----1------2---|
D|-7------5------3------5------7----8-----2------0---|
A|-5------5------3------3------7----8-----2----------|
E|-X------3------1------X------5----6-----0----------|






Trumpet adapted to guitar with chords. First Part

   Dm                  A
e|---------------------17~-------------------------------------------------|
B|-15h17-15~--17-18-20-----17p15-17~---------------------------------------|
G|-------------------------------------------------------------------------|
D|-------------------------------------------------------------------------|
A|-------------------------------------------------------------------------|
E|-------------------------------------------------------------------------|


   Dm                  C
e|--------------17-20-20~---15p13-15---------------------------------------|
B|-15h17-15~--18-----------------------------------------------------------|
G|-------------------------------------------------------------------------|
D|-------------------------------------------------------------------------|
A|-------------------------------------------------------------------------|
E|-------------------------------------------------------------------------|


  Dm                        E          A            D          G
e|---------------------------------------------------------------15-17-15~-|
B|-15h17-15~--15\10-15-----17h18-17~------17\10-17--19-20-19~--15----------|
G|-------------------------------------------------------------------------|
D|-------------------------------------------------------------------------|
A|-------------------------------------------------------------------------|
E|-------------------------------------------------------------------------|


          F                   C
e|-13-15-17~--13-13-15-17-----15p13-15~------------------------------------|
B|-------------------------------------------------------------------------|
G|-------------------------------------------------------------------------|
D|-------------------------------------------------------------------------|
A|-------------------------------------------------------------------------|
E|-------------------------------------------------------------------------|





Part II and final.



Trumpet adapted to guitar with chords.

   Dm                  A
e|---------------------17~-------------------------------------------------|
B|-15h17-15~--17-18-20-----17H18P17p15-17~---------------------------------|
G|-------------------------------------------------------------------------|
D|-------------------------------------------------------------------------|
A|-------------------------------------------------------------------------|
E|-------------------------------------------------------------------------|


   Dm                  C
e|---------------17-20-20~---15H17p15p13-15--------------------------------|
B|-15h17-15~--18-----------------------------------------------------------|
G|-------------------------------------------------------------------------|
D|-------------------------------------------------------------------------|
A|-------------------------------------------------------------------------|
E|-------------------------------------------------------------------------|


  Dm                        E          A            D          G
e|---------------------------------------------------------------15-17-15~-|
B|-15h17-15~--15\10-15-----17h18-17~------17\10-17--19-20-19~--15----------|
G|-------------------------------------------------------------------------|
D|-------------------------------------------------------------------------|
A|-------------------------------------------------------------------------|
E|-------------------------------------------------------------------------|


          F                    Dm
e|-13-15-17~-------------13-15-17-15-17~-----------------------------------|
B|-------------------------------------------------------------------------|
G|-------------------------------------------------------------------------|
D|-------------------------------------------------------------------------|
A|-------------------------------------------------------------------------|
E|-------------------------------------------------------------------------|

          A#      
e|-13-15-17-17---18-18—-17-17~-----------|
B|---------------------------------------|
G|---------------------------------------|
D|---------------------------------------|
A|---------------------------------------|
E|---------------------------------------|
                         C           
e|-15h17-15-13-15-—17---15h17p15p13 15~~-|
B|---------------------------------------|
G|---------------------------------------|
D|---------------------------------------|
A|---------------------------------------|
E|---------------------------------------|
    
          Dm
                         
e|-13-12-13h15p13p12-13~-----|
B|---------------------------|
G|---------------------------|
D|---------------------------|
A|---------------------------|
E|---------------------------|
   
          F                       
e|-15-12-12h13h15p13p12-13~--|
B|---------------------------|
G|---------------------------|
D|---------------------------|
A|---------------------------|
E|---------------------------|

      
         A#      
e|-10-12-13~--15-15--13-13~--|
B|---------------------------|
G|---------------------------|
D|---------------------------|
A|---------------------------|
E|---------------------------|

             A
e|-10-12-15—13h15p13p12~------|
B|----------------------------|
G|----------------------------|
D|----------------------------|
A|----------------------------|
E|----------------------------|


Enjoy!!!!
Suggest correction
comments
print report bad tab
3 comments total.
0 reply
mackem1989 10 Dec 13, 2009 10:48 AM

Thanks good tab.
What chords are used in the chorus please (the trumpet part)

0 reply
Didgeridoomen 93 May 21, 2014 09:31 AM

I think you are confusing D and Dm with R and Rm. There is no such chord as 'R'.

0 reply
Splitterphiliac 66 Feb 14, 2015 01:19 AM

The "Instrument adapted to guitar" is a flute. Otherwise good work

guest
You may want to rate the tab now too:
select rating
Wanna post a correction for this tab? Suggest correction