Oops, an error
Loading. Please wait.

Larena Tab

version 1
version 1

Solo

Whole song

Interactive

2,941 views 1 this week
3 commentsread comments
1 2 3 4 5
please rate
add to favorites
launch autoscroll
font size
0
reset
how to read this tab
guitar tuner
Tab Pro tools
  • play this tab
  • loop segment
  • change instrument
  • show fretboard
  • metronome
×
Best way to learn
"Larena"
Autoscroll
slow
fast
+/-
esc
set tempo
stop
Contributor
Difficulty
novice
-------------------------------------------------------------------------------
             SONG NAME l'arena - Band Name Ennio Morricone 
-------------------------------------------------------------------------------
Tabbed by: Loco23
Email: jorge_porko23@hotmail.com

Tuning: Standard

e|-----------------------------------------------------------------------------------------|
B|-----------------------------------------------------------------------------------------|
G|-----------------------------------------------------------------------------------------|
D|------------------x2---------------------------------------------------------------------|
A|-5-5-5--6-6--4-3-4-----9-9-9--10-10-7-8-7-8-6---5-5-5--6-6--4-3-4-4-3-4-0----------------|
E|-----------------------------------------------------------------------------------------|


A good song which many people may not know the name of, but most are familiar with the tune.
comments
We did not receive enough feedback on this tab! Please rate:
print report bad tab
1 2 3 4 5
3 comments total.
0 reply
the anus wrote on July 16 2008, 12:30 pm

----------------------------
----------------------------
---------------------------- x 2
----------------------------
--5-5-5-6-5-5-1-3-----------
----------------------------

-------------------------------
-------------------------------
-------------------------------
-------------------------------
--8-8-8-10-8-8-5-5------3-5----
-------------------------------

----------------------------
----------------------------
----------------------------
----------------------------
--5-5-5-6-5-5-3-1-----------
----------------------------

+2 reply
primoris morior wrote on December 21 2008, 07:13 am

no offense but your ear isnt that good.. :p it needs to be played one half step down.. detune or rearrange yourself :)

+2 reply
rufffy wrote on June 10 2009, 05:13 pm

in my opinion its just like this
e|-----------------------------------------------------------------|
B|-----------------------------------------------------------------|
G|-----------------------------------------------------------------|
D|----------------x2-----------------------------------------------|
A|-4-4-4-5-4-4-0-2---7-7-7-9-7-7-4-4--2-4---4-4-4-5-4-4-0-0--2-4-0-|
E|-----------------------------------------------------------------|

I want to post or [tab]
guest
You may want to rate the tab now too:
select rating
Please do not post tabs as comments. Select "correction" instead!