Oops, an error
Loading. Please wait.

Lultima Diligenza Di Red Rock intro tab

3,535 views 12 this week
no commentswrite comment
1 2 3 4 5
x 4
add to favorites
×
Save as Personal and add changes to this tab that will be seen only by you. Learn more ›
×
You can save this tab as Personal to edit and correct it or add notes. All changes will be seen only by you. Learn more »
launch autoscroll
font size
0
reset
how to read this tab
guitar tuner
edit
Autoscroll
slow
fast
+/-
esc
set tempo
stop
Author
L'Ultima Diligenza di Red Rock (from The Hateful Eight) - Ennio Morricone
Tabbed by: Sampo S
Tuning: Standard, ( EADGBe )

This is the music from the very beginning of the film.
(zooming out from the crucifix, the opening credits)

e|---------------------------------------------------------------------------|
B|---------------------------------------------------------------------------|
G|---------------------------------------------------------------------------|
D|-------1----------0--------1----------0-----1-----0-----1-----0------------|
A|-3--------2----------3--------2----------3-----2-----3-----2---------------|
E|---------------------------------------------------------------------------|

e|---------------------------------------------------------------------------|
B|---------------------------------------------------------------------------|
G|---------------------------------------------------------------------------|
D|----------0-------------------0----------1-----0-----1-----0---------------|
A|-3-----2----------0--3-----2----------0-----3-----2-----3-----2------------|
E|---------------------------------------------------------------------------|

e|---------------------------------------------------------------------------|
B|---------------------------------------------------------------------------|
G|---------------------------------------------------------------------------|
D|-1-----4--0-------3--1-----4--0-------3--1--4--0--3--1--4--0--3------------|
A|---------------------------------------------------------------------------|
E|---------------------------------------------------------------------------|

e|---------------------------------------------------------------------------|
B|---------------------------------------------------------------------------|
G|---------------------------------------------------------------------------|
D|-1-----0--3----------1-----0--3----------4--1--3--0--4--1--3--0------------|
A|------------------3-------------------3------------------------------------|
E|---------------------------------------------------------------------------|

It sounds also quite cool if you replace the final note D with a D# as in here:

e|---------------------------------------------------------------------------|
B|---------------------------------------------------------------------------|
G|---------------------------------------------------------------------------|
D|-1-----0--3----------1-----0--3----------4--1--3--0--4--1--3--1------------|
A|------------------3-------------------3------------------------------------|
E|---------------------------------------------------------------------------|

Later on there is some high pitch stuff, but I hope this basic melody helps you
at least to get started.

To get the rhythm correct and get an idea how the music continues from here on,
listen the track on Spotify or YouTube or somewhere else where you can find it.

The track (Spotify):
L'Ultima Diligenza di Red Rock from "The Hateful Eight" Soundtrack / Versione Integrale
https://open.spotify.com/track/7k1kRW4kB1UKaOhhzdh9rm
or if that doesn't work:
spotify:track:7k1kRW4kB1UKaOhhzdh9rm

            
            
Suggest correction
Creating personal tab
Creating personal tab
You can edit any tab online and save it as your Personal.

You can edit, replace or remove any tab part or add personal notes – all changes will be seen only by you.

Personal tabs can be accessed anytime from any device, even offline.
Learn more »
comments
print report bad tab
guest
You may want to rate the tab now too:
select rating
Wanna post a correction for this tab? Suggest correction