Oops, an error
Loading. Please wait.

Mystic And Severe Bass Tab

version 1
version 1

Whole song

Interactive

3,884 views 3 this week
no commentswrite comment
1 2 3 4 5
excellent!
x 3
add to favorites
launch autoscroll
font size
0
reset
guitar tuner
Autoscroll
slow
fast
+/-
esc
set tempo
stop
Help us to improve Ultimate-Guitar.com Take our survey!
×
G|----------------|-----------------|-----------------|-----------------|
D|-----------5---5|---7---7-9--7---5|-------5---------|-----------9----9|
A|---7---7--------|-----------------|---7-----7--5---5|-------------9---|
E|----------------|-----------------|-----------------|---7---7---------|


G|----------------|-----------------|-----------------|-------------------|
D|-----------5---5|---7---7-9--7---5|-------5---------|-------------------|
A|---7---7--------|-----------------|---7-----7--5---5|---7---7-------7---|
E|----------------|-----------------|-----------------|-----------7-7---7-|


Just keep repeating this pattern all the way through the song.
Suggest correction
Give kudos to tab author, rate the tab!
1 2 3 4 5
comments
print report bad tab
guest
You may want to rate the tab now too:
select rating
Wanna post a correction for this tab? Suggest correction