Oops, an error
Loading. Please wait.

Navajo Joe Tab

version 1
version 1

Solo

1,586 views 1 this week
2 commentsread comments
1 2 3 4 5
1 last vote to show rating
add to favorites
launch autoscroll
font size
0
reset
how to read this tab
guitar tuner
Autoscroll
slow
fast
+/-
esc
set tempo
stop
Help us to improve Ultimate-Guitar.com Take our survey!
×
Author
Difficulty
novice
-------------------------------------------------------------------------------
                             NAVAJO JOE - ENNIO MORRICONE
-------------------------------------------------------------------------------
Tabbed by: Paul Mckenzie
Email:

Tuning:Standard

e|---------------------------------------------------------------------------|
B|---------------------------------------------------------------------------|
G|--------------------------------------------0------------------------------|
D|-0-0-2-3-----------0-0-2-3----------0-0-2-3--------------------------------|
A|---------0-----------------0-----------------------------------------------|
E|---------------------------------------------------------------------------|

e|---------------------------------------------------------------------------|
B|---------------------------0-----------------------------------------------|
G|-----------------------------2-0-------------------------------------------|
D|-0-0-2-3-----------0-0-2-3-------3-2-0---0-2-------------------------------|
A|---------0-----------------------------3-----0-----------------------------|
E|--------- -----------------------------------------------------------------|


I was watching Kill Bill and this is the song played just after Bill Dies. Very taken 
the sound  It is also the
Theme from a 1960's movie Navajo Joe - Starred Burt Reynolds.

The tune is very simple and I am surprised not to find a tab for it anywhere.  Very 
of Spaghetti Western style music
Suggest correction
Give kudos to tab author, rate the tab!
1 2 3 4 5
comments
print report bad tab
2 comments total.
0 reply
ariel.c.garza 10 Jul 25, 2013 07:45 PM

Wow, you must be completely tone deaf.

0 reply
senorroboto 18 Jan 18, 2015 05:15 AM


e|---------------------------------------------------------------------------|
B|---------------------------------------------------------------------------|
G|---------------------------------------------------------------------------|
D|-----0-2---------------0-2--------------0-2-5------------------------------|
A|-3-3-----0---------3-3-----0--------3-3------------------------------------|
E|---------------------------------------------------------------------------|

e|---------------------------------------------------------------------------|
B|---------------------------------------------------------------------------|
G|---------------------------4-2-0-------------------------------------------|
D|-----0-2---------------0-2-------2-20---0-0--------------------------------|
A|-3-3-----0---------3-3----------------3-----0------------------------------|
E|---------------------------------------------------------------------------|

guest
You may want to rate the tab now too:
select rating
Wanna post a correction for this tab? Suggest correction