Oops, an error
Loading. Please wait.

Once Upon A Time In America Tab

17,904 views 123 this week
no commentswrite comment
1 2 3 4 5
x 7
add to favorites
launch autoscroll
font size
0
reset
how to read this tab
guitar tuner
Autoscroll
slow
fast
+/-
esc
set tempo
stop
Help us to improve Ultimate-Guitar.com Take our survey!
×
Author
Composed by Ennio Morricone
Arranged by kenor

        NH                                                   
        H.              E  E  E   E  E  E     Q.     Q.      
e|------------------|---------------------|----------------|
B|------------------|--------7--10--8--7--|--8-------------|
G|------------------|-----9---------------|----------------|
D|------------------|--9------------------|---------9------|
A|------------------|---------------------|----------------|
E|--<>12------------|---------------------|----------------|

                                                   ^              
    E  E  E   E  E  E      E   E.  S  E  E.   S    Q.     Q.      
e|---------------7--8--|--12--11---7-10--9------|--8-------------|
B|-----7--8--10--------|---------------------10-|---------7------|
G|--9------------------|------------------------|--9------5------|
D|---------------------|------------------------|----------------|
A|---------------------|--------------0---------|--0-------------|
E|--0------------------|---L--------------------|----------------|

                          ^      ^          ^        ^           ^                
    E  E  E   E  E.  S    Q.     Q    E     E  E  E  E  E  E     Q.       Q.      
e|--5--7--8--10--8---5-|--7-----------2--|--3--2--0-----------|---------<>2------|
B|---------------------|--7------5-------|--2--------2--4--5--|--4---------------|
G|--5--7--9--11--9---5-|--0------4-------|--3--------3--------|--2---------------|
D|--0------------------|-----------------|-----------2--------|------------------|
A|---------------------|---------3-------|--------------------|--2---------------|
E|---------------------|-----------------|--------------------|------------------|

    ^                     ^                ^                  
    E  E  E   E  E  E     Q.     Q.        E  E  E  E  E  E   
e|---------------------|----------------|-----------5--7--8--|
B|--0--5--7--10--8--7--|--8------0------|--5--7--8-----------|
G|--0------------------|---------0------|--0--------5--7--9--|
D|-----5--7--10--9--7--|--9-------------|--5--7--9-----------|
A|---------------------|----------------|--------------------|
E|--0------------------|--0-------------|--0-----------------|

     ^                     ^                            ^          
     E   E.  S  Q.         E  E.   S Q.        E  E  E  E  E   E   
e|--12--11---7-10------|--10--9------8------|--2--3--5--7--9--11--|
B|---------------------|--10------10--------|-----5--7------------|
G|--12----------9------|------9------9------|--5--------8--9--11--|
D|---------------------|--------------------|---------------------|
A|---------------------|---0---------0------|--L--------0---------|
E|---0-----------------|--------------------|---------------------|

                  ^            ^        ^                           
     E   E  S  S  Q     E      E  Q     Q    E     Q.     E  E  E   
e|--14--12-------12----11--|--10--9-----8----2--|--L------5--3--2--|
B|--12--------12-12--------|--10-------10-------|---------5--------|
G|---0------0-----0----12--|---9--------9----5--|--L------------2--|
D|-------------------------|--------------------|------------------|
A|-------------------------|---0--------0-------|---------3--------|
E|-------------------------|--------------------|------------------|

    ^                       ^                                              
    Q.     Q.        Q.     Q.        Q.     E  E  E     Q    E  E  E  E   
e|--0------2------|--L------4------|--L---------------|-------------------|
B|---------5------|--L------4------|--L---------------|----------0--1--3--|
G|--0------2------|--L------4------|--L------------1--|--2----------2-----|
D|----------------|----------------|---------2--4-----|-------2-----------|
A|--2------2------|--2-------------|------------------|--0----------------|
E|----------------|---------0------|--L---------------|-------------------|

                        ^                 ^                                     
    Q    E  E  E  E     Q    Q    Q       Q    E  E  E  E     Q    E  E  E  E   
e|--0-------2--3--5--|-----------------|--0----------------|-------------------|
B|-------------------|--0--------------|--0----0-----------|----------0--1--3--|
G|-------2-----5-----|-------0---------|----------------0--|--2----------2-----|
D|--0----------------|--4---------4----|----------2--4-----|-------2-----------|
A|-------------------|-----------------|--3----------------|-------------------|
E|-------------------|--3--------------|-------------------|--2----------------|

                        ^                ^                                     
    Q    E  E  E  E     H        Q       Q.     E  E  E     E  E  E  E  E  E   
e|--0-------2--3--5--|--2-------------|------------7--5--|--3-----------------|
B|-------------------|--4--------2----|--4------0--------|--5-----5-----------|
G|-------0-----------|--2--------2----|--2---------------|--4-----4-----------|
D|-------------------|----------------|------------------|-----5-----5-----5--|
A|--3----------3-----|--2-------------|--2---------------|--------------------|
E|-------------------|----------------|------------------|--0-----------0-----|

    E  E  E  E  E  E     E  E  E  E  E  E     E  E  E  E  E  E   
e|--------------7--5--|--3-----------------|--------------7--5--|
B|--------5-----5-----|--5-----5-----------|--------5-----5-----|
G|-----------5--------|--4-----4-----------|-----------5--------|
D|-----7-----7--------|-----5-----5-----5--|-----7-----7--------|
A|--0-----------------|--------------------|--0-----------------|
E|--------------------|--0-----------0-----|--------------------|

                                     ^                         ^                
    E  E  E  E  E  E     E  E  E  E  Q       Q    Q    Q       Q.     E  E  E   
e|--3-----------------|-----------2--3----|--2--------------|------------7--5--|
B|--5--------5--------|--5-----------5----|--4---------2----|--4------0--------|
G|--3-----3-----3-----|-----3-------------|--2---------2----|--2---------------|
D|-----5-----------5--|--------5----------|-------4---------|------------------|
A|--4-----------------|--4-----------4----|--2--------------|--2---------------|
E|--------------------|-------------------|-----------------|------------------|

    Q    Q    Q       Q    E  E  E  E     Q    Q    Q       Q    E  E  E  E   
e|--3--------------|-------------7--5--|--3--------------|-------------7--5--|
B|-------5---------|-------------5-----|-------5---------|-------------5-----|
G|-------4---------|----------5--------|-------4---------|----------5--------|
D|------------5----|-------7-----------|------------5----|-------7-----------|
A|-----------------|--0----------------|-----------------|--0----------------|
E|--0--------------|-------------------|--0--------------|-------------------|

                                 ^       ^                             
    Q    Q    Q       Q    E  E  Q       H.              H.            
e|--3--------------|----------2--3----|--2------------|--L------------|
B|-------5---------|--5----------5----|--5------------|--4------------|
G|-------3---------|------------------|--4------------|--4------------|
D|------------5----|-------5----------|---------------|---------------|
A|--4--------------|--4----------4----|--2------------|--L------------|
E|-----------------|------------------|---------------|---------------|

    ^                     ^                ^                  
    E  E  E   E  E  E     Q.     Q.        E  E  E  E  E  E   
e|---------------------|----------------|-----------5--7--8--|
B|--0--5--7--10--8--7--|--8------0------|--5--7--8-----------|
G|--0------------------|---------0------|--0--------5--7--9--|
D|-----5--7--10--9--7--|--9-------------|--5--7--9-----------|
A|---------------------|----------------|--------------------|
E|--0------------------|--0-------------|--0-----------------|

     ^                     ^                            ^          
     E   E.  S  Q.         E  E.   S Q.        E  E  E  E  E   E   
e|--12--11---7-10------|--10--9------8------|--2--3--5--7--9--11--|
B|---------------------|--10------10--------|-----5--7------------|
G|--12----------9------|------9------9------|--5--------8--9--11--|
D|---------------------|--------------------|---------------------|
A|---------------------|---0---------0------|--L--------0---------|
E|---0-----------------|--------------------|---------------------|

                  ^            ^        ^                           
     E   E  S  S  Q     E      E  Q     Q    E     Q.     E  E  E   
e|--14--12-------12----11--|--10--9-----8----2--|--L------5--3--2--|
B|--12--------12-12--------|--10-------10-------|---------5--------|
G|---0------0-----0----12--|---9--------9----5--|--L------------2--|
D|-------------------------|--------------------|------------------|
A|-------------------------|---0--------0-------|---------3--------|
E|-------------------------|--------------------|------------------|

    ^                       ^                  
    Q.     Q.        Q.     Q.                 
e|--0------2------|--L------4------|---------|
B|---------5------|--L------4------|---------|
G|--0------2------|--L------4------|---------|
D|----------------|----------------|---------|
A|--2------2------|--2-------------|---------|
E|----------------|---------0------|---------|

************************************
W - whole
H - half
Q - quarter
E - 8th
S - 16th
. - note dotted
L - tied note
NH - natural harmonic
AH - artificial harmonic
^ - brush up
************************************
Suggest correction
comments
print report bad tab
guest
You may want to rate the tab now too:
select rating
Wanna post a correction for this tab? Suggest correction