Oops, an error
Loading. Please wait.

Padre Ramirez Tab

6,833 views 24 this week
1 commentread comment
1 2 3 4 5
accurate
x 5
add to favorites
launch autoscroll
font size
0
reset
how to read this tab
guitar tuner
Autoscroll
slow
fast
+/-
esc
set tempo
stop
Help us to improve Ultimate-Guitar.com Take our survey!
×
Difficulty
advanced
 Tabbed by Sentaza.  This is off of The Good, The Bad, & The Ugly soundtrack.  Not sure 
the beginning.

e|------------------------------------------------------------------|
b|-1-3-5-5-5-5--6-5--3-1--3-3-1------0--1-1-1-1--3-1-0--0-----------|
G|-2-4-5-5-5-5--7-5--4-2--4-4-2----2-------------------2------------|
D|------------------------------------------------------------------|
A|------------------------------------------------------------------|
E|------------------------------------------------------------------|

e|-----0-0-0-0-1-0----------------0--------------------------|
b|-1-3------------3--1-1-3-3-3-3----3-1-0-1-1-1-1-3--1--0----|
G|--------------------------------------------------------2--|
D|-----------------------------------------------------------|
A|-----------------------------------------------------------|
E|-----------------------------------------------------------|

e|-------0-0-0-0--1-0------------------------------------------|
b|--1-3----------------3-1-3-3-1--------0--1-1-1-1--3-1-0---0--|
G|-----------------------------------2--------------------2----|
D|-------------------------------------------------------------|
A|-------------------------------------------------------------|
E|-------------------------------------------------------------|

e|--------------------------------------------------------------------|
b|---1-3-5-5-5-5-5--6-5-3-1--3-3-3-3--5-3-1-0-1-1-1-1--3-----1---0----|
G|------------------------------------------------------------------2-|
D|--------------------------------------------------------------------|
A|--------------------------------------------------------------------|
E|--------------------------------------------------------------------|

e|-------------------------------------------------------------------------|
b|--6---8--10-10-10-10--11-10-8-6-8-8-6----3--5-6-6-6-6-8-8-6-5-3-5--5*-5*-|
G|--7---9--10-10-10-10-----------------------------------------------------|
D|-------------------------------------------------------------------------|
A|-------------------------------------------------------------------------|
E|-------------------------------------------------------------------------|


e|-1-3--5-5-5-5-6-5-3-1-3-3-3-3-5-3-1--0-1-1-1-1-3--1--0-------0-----------|
b|-----------------------------------------------0----------------3--------|
G|-------------------------------------------------------------------------|
D|-------------------------------------------------------------------------|
A|-------------------------------------------------------------------------|
E|-------------------------------------------------------------------------|

e|-----------------------------------------------------------0----3-----5--|
b|------------1--------------------1-------------------1-------1-----------|
G|-------2------------------2--------------------2--------2----------------|
D|---0------3-----------0------3-------------0------3----------------------|
A|-0-----------------0-------------------0---------------------------------|
E|-------------------------------------------------------------------------|

e|--1-0----3----1-0-----3---1-0----3----1-0---3---1-0---3---1-0-------------|
b|------3-----3------3----3------3---3------3---3-----3---3-----1-3-1-0-1---|
G|--------------------------------------------------------------------------|
D|--------------------------------------------------------------------------|
A|--------------------------------------------------------------------------|continude on
E|--------------------------------------------------------------------------|next lines

e|---------------------------------------------------------------------|
b|-0-------------------------------------------------------------------|
G|----2-4-2-0-4-2------------------------------------------------------|
D|-----------------3-5-3-2-3-------------------------------------------|
A|----------------------------5----------------------------------------|
E|---------------------------------------------------------------------|

 This is it.  You have to listen to the song a few times to get the timing down and all 
jazz. The two * mean to fade.  Adios.
Suggest correction new What's this?
You can suggest a correction to this tab. Community and Mods will review your correction and vote to approve or reject it.
comments
print report bad tab
1 comment total.
0 reply
Dieu des hommes 252 wrote on January 14 2014, 12:16 pm

Just the intro for you guys.

E|---------------------------------|---------------------------------|---------------------------------|
B|---------------------------------|---------------------------------|-----3---0-----------------------|
G|---------------------------------|-------------------------2-------|-2-----------2-----------0-------|
D|---------0-------------------0---|-----------------0---2-------2---|---------------------0-------2---|
A|-----0-------2---0-------0-------|-2---0-------0-------------------|-----------------0---------------|
E|-0-------------------0-----------|---------0-----------------------|---------------------------------|

E|---------------------------------|---------------------------------|---------------------------------|
B|---------------------------------|---------------------3---0-------|---------3---0-------------------|
G|-------------0-------------------|---------2-------2-----------2---|-----2---------------------------|
D|-0-------0-------2---0-----------|-0---2-------2-------------------|-2-------------------------------|
A|-----0-----------------------0---|---------------------------------|---------------------------------|
E|-------------------------0-------|---------------------------------|---------------------------------|

guest
You may want to rate the tab now too:
select rating
Please do not post tabs as comments. Select "correction" instead!